  0
SECTION
  2
HEADER
  9
$ACADVER
  1
AC1024
  9
$ACADMAINTVER
 70
     6
  9
$DWGCODEPAGE
  3
ANSI_1252
  9
$INSBASE
 10
0.0
 20
0.0
 30
0.0
  9
$EXTMIN
 10
1.000000000000000E+20
 20
1.000000000000000E+20
 30
1.000000000000000E+20
  9
$EXTMAX
 10
-1.000000000000000E+20
 20
-1.000000000000000E+20
 30
-1.000000000000000E+20
  9
$LIMMIN
 10
0.0
 20
0.0
  9
$LIMMAX
 10
12.0
 20
9.0
  9
$ORTHOMODE
 70
     0
  9
$REGENMODE
 70
     1
  9
$FILLMODE
 70
     1
  9
$QTEXTMODE
 70
     0
  9
$MIRRTEXT
 70
     1
  9
$LTSCALE
 40
1.0
  9
$ATTMODE
 70
     1
  9
$TEXTSIZE
 40
0.2
  9
$TRACEWID
 40
0.05
  9
$TEXTSTYLE
  7
Standard
  9
$CLAYER
  8
0
  9
$CELTYPE
  6
ByLayer
  9
$CECOLOR
 62
   256
  9
$CELTSCALE
 40
1.0
  9
$DISPSILH
 70
     0
  9
$DIMSCALE
 40
1.0
  9
$DIMASZ
 40
0.18
  9
$DIMEXO
 40
0.0625
  9
$DIMDLI
 40
0.38
  9
$DIMRND
 40
0.0
  9
$DIMDLE
 40
0.0
  9
$DIMEXE
 40
0.18
  9
$DIMTP
 40
0.0
  9
$DIMTM
 40
0.0
  9
$DIMTXT
 40
0.18
  9
$DIMCEN
 40
0.09
  9
$DIMTSZ
 40
0.0
  9
$DIMTOL
 70
     0
  9
$DIMLIM
 70
     0
  9
$DIMTIH
 70
     1
  9
$DIMTOH
 70
     1
  9
$DIMSE1
 70
     0
  9
$DIMSE2
 70
     0
  9
$DIMTAD
 70
     0
  9
$DIMZIN
 70
     0
  9
$DIMBLK
  1

  9
$DIMASO
 70
     1
  9
$DIMSHO
 70
     1
  9
$DIMPOST
  1

  9
$DIMAPOST
  1

  9
$DIMALT
 70
     0
  9
$DIMALTD
 70
     2
  9
$DIMALTF
 40
25.4
  9
$DIMLFAC
 40
1.0
  9
$DIMTOFL
 70
     0
  9
$DIMTVP
 40
0.0
  9
$DIMTIX
 70
     0
  9
$DIMSOXD
 70
     0
  9
$DIMSAH
 70
     0
  9
$DIMBLK1
  1

  9
$DIMBLK2
  1

  9
$DIMSTYLE
  2
Standard
  9
$DIMCLRD
 70
     0
  9
$DIMCLRE
 70
     0
  9
$DIMCLRT
 70
     0
  9
$DIMTFAC
 40
1.0
  9
$DIMGAP
 40
0.09
  9
$DIMJUST
 70
     0
  9
$DIMSD1
 70
     0
  9
$DIMSD2
 70
     0
  9
$DIMTOLJ
 70
     1
  9
$DIMTZIN
 70
     0
  9
$DIMALTZ
 70
     0
  9
$DIMALTTZ
 70
     0
  9
$DIMUPT
 70
     0
  9
$DIMDEC
 70
     4
  9
$DIMTDEC
 70
     4
  9
$DIMALTU
 70
     2
  9
$DIMALTTD
 70
     2
  9
$DIMTXSTY
  7
Standard
  9
$DIMAUNIT
 70
     0
  9
$DIMADEC
 70
     0
  9
$DIMALTRND
 40
0.0
  9
$DIMAZIN
 70
     0
  9
$DIMDSEP
 70
    46
  9
$DIMATFIT
 70
     3
  9
$DIMFRAC
 70
     0
  9
$DIMLDRBLK
  1

  9
$DIMLUNIT
 70
     2
  9
$DIMLWD
 70
    -2
  9
$DIMLWE
 70
    -2
  9
$DIMTMOVE
 70
     0
  9
$DIMFXL
 40
1.0
  9
$DIMFXLON
 70
     0
  9
$DIMJOGANG
 40
0.7853981633974483
  9
$DIMTFILL
 70
     0
  9
$DIMTFILLCLR
 70
     0
  9
$DIMARCSYM
 70
     0
  9
$DIMLTYPE
  6

  9
$DIMLTEX1
  6

  9
$DIMLTEX2
  6

  9
$DIMTXTDIRECTION
 70
     0
  9
$LUNITS
 70
     2
  9
$LUPREC
 70
     4
  9
$SKETCHINC
 40
0.1
  9
$FILLETRAD
 40
0.5
  9
$AUNITS
 70
     0
  9
$AUPREC
 70
     0
  9
$MENU
  1
.
  9
$ELEVATION
 40
0.0
  9
$PELEVATION
 40
0.0
  9
$THICKNESS
 40
0.0
  9
$LIMCHECK
 70
     0
  9
$CHAMFERA
 40
0.5
  9
$CHAMFERB
 40
0.5
  9
$CHAMFERC
 40
1.0
  9
$CHAMFERD
 40
0.0
  9
$SKPOLY
 70
     0
  9
$TDCREATE
 40
2456993.579093495
  9
$TDUCREATE
 40
2456993.141593495
  9
$TDUPDATE
 40
2456993.579093819
  9
$TDUUPDATE
 40
2456993.141593819
  9
$TDINDWG
 40
0.0000000116
  9
$TDUSRTIMER
 40
0.0000000116
  9
$USRTIMER
 70
     1
  9
$ANGBASE
 50
0.0
  9
$ANGDIR
 70
     0
  9
$PDMODE
 70
     0
  9
$PDSIZE
 40
0.0
  9
$PLINEWID
 40
0.0
  9
$SPLFRAME
 70
     0
  9
$SPLINETYPE
 70
     6
  9
$SPLINESEGS
 70
     8
  9
$HANDSEED
  5
419
  9
$SURFTAB1
 70
     6
  9
$SURFTAB2
 70
     6
  9
$SURFTYPE
 70
     6
  9
$SURFU
 70
     6
  9
$SURFV
 70
     6
  9
$UCSBASE
  2

  9
$UCSNAME
  2

  9
$UCSORG
 10
0.0
 20
0.0
 30
0.0
  9
$UCSXDIR
 10
1.0
 20
0.0
 30
0.0
  9
$UCSYDIR
 10
0.0
 20
1.0
 30
0.0
  9
$UCSORTHOREF
  2

  9
$UCSORTHOVIEW
 70
     0
  9
$UCSORGTOP
 10
0.0
 20
0.0
 30
0.0
  9
$UCSORGBOTTOM
 10
0.0
 20
0.0
 30
0.0
  9
$UCSORGLEFT
 10
0.0
 20
0.0
 30
0.0
  9
$UCSORGRIGHT
 10
0.0
 20
0.0
 30
0.0
  9
$UCSORGFRONT
 10
0.0
 20
0.0
 30
0.0
  9
$UCSORGBACK
 10
0.0
 20
0.0
 30
0.0
  9
$PUCSBASE
  2

  9
$PUCSNAME
  2

  9
$PUCSORG
 10
0.0
 20
0.0
 30
0.0
  9
$PUCSXDIR
 10
1.0
 20
0.0
 30
0.0
  9
$PUCSYDIR
 10
0.0
 20
1.0
 30
0.0
  9
$PUCSORTHOREF
  2

  9
$PUCSORTHOVIEW
 70
     0
  9
$PUCSORGTOP
 10
0.0
 20
0.0
 30
0.0
  9
$PUCSORGBOTTOM
 10
0.0
 20
0.0
 30
0.0
  9
$PUCSORGLEFT
 10
0.0
 20
0.0
 30
0.0
  9
$PUCSORGRIGHT
 10
0.0
 20
0.0
 30
0.0
  9
$PUCSORGFRONT
 10
0.0
 20
0.0
 30
0.0
  9
$PUCSORGBACK
 10
0.0
 20
0.0
 30
0.0
  9
$USERI1
 70
     0
  9
$USERI2
 70
     0
  9
$USERI3
 70
     0
  9
$USERI4
 70
     0
  9
$USERI5
 70
     0
  9
$USERR1
 40
0.0
  9
$USERR2
 40
0.0
  9
$USERR3
 40
0.0
  9
$USERR4
 40
0.0
  9
$USERR5
 40
0.0
  9
$WORLDVIEW
 70
     1
  9
$SHADEDGE
 70
     3
  9
$SHADEDIF
 70
    70
  9
$TILEMODE
 70
     1
  9
$MAXACTVP
 70
    64
  9
$PINSBASE
 10
0.0
 20
0.0
 30
0.0
  9
$PLIMCHECK
 70
     0
  9
$PEXTMIN
 10
1.000000000000000E+20
 20
1.000000000000000E+20
 30
1.000000000000000E+20
  9
$PEXTMAX
 10
-1.000000000000000E+20
 20
-1.000000000000000E+20
 30
-1.000000000000000E+20
  9
$PLIMMIN
 10
0.0
 20
0.0
  9
$PLIMMAX
 10
12.0
 20
9.0
  9
$UNITMODE
 70
     0
  9
$VISRETAIN
 70
     1
  9
$PLINEGEN
 70
     0
  9
$PSLTSCALE
 70
     1
  9
$TREEDEPTH
 70
  3020
  9
$CMLSTYLE
  2
Standard
  9
$CMLJUST
 70
     0
  9
$CMLSCALE
 40
1.0
  9
$PROXYGRAPHICS
 70
     1
  9
$MEASUREMENT
 70
     0
  9
$CELWEIGHT
370
    -1
  9
$ENDCAPS
280
     0
  9
$JOINSTYLE
280
     0
  9
$LWDISPLAY
290
     1
  9
$INSUNITS
 70
     1
  9
$HYPERLINKBASE
  1

  9
$STYLESHEET
  1

  9
$XEDIT
290
     1
  9
$CEPSNTYPE
380
     0
  9
$PSTYLEMODE
290
     1
  9
$FINGERPRINTGUID
  2
{80818BD8-E66A-4A61-A7C9-F259CF0E759A}
  9
$VERSIONGUID
  2
{FAEB1C32-E019-11D5-929B-00C0DF256EC4}
  9
$EXTNAMES
290
     1
  9
$PSVPSCALE
 40
0.0
  9
$OLESTARTUP
290
     0
  9
$SORTENTS
280
   127
  9
$INDEXCTL
280
     0
  9
$HIDETEXT
280
     1
  9
$XCLIPFRAME
280
     2
  9
$HALOGAP
280
     0
  9
$OBSCOLOR
 70
   257
  9
$OBSLTYPE
280
     0
  9
$INTERSECTIONDISPLAY
280
     0
  9
$INTERSECTIONCOLOR
 70
   257
  9
$DIMASSOC
280
     2
  9
$PROJECTNAME
  1

  9
$CAMERADISPLAY
290
     0
  9
$LENSLENGTH
 40
50.0
  9
$CAMERAHEIGHT
 40
0.0
  9
$STEPSPERSEC
 40
2.0
  9
$STEPSIZE
 40
6.0
  9
$3DDWFPREC
 40
2.0
  9
$PSOLWIDTH
 40
0.25
  9
$PSOLHEIGHT
 40
4.0
  9
$LOFTANG1
 40
1.570796326794897
  9
$LOFTANG2
 40
1.570796326794897
  9
$LOFTMAG1
 40
0.0
  9
$LOFTMAG2
 40
0.0
  9
$LOFTPARAM
 70
     7
  9
$LOFTNORMALS
280
     1
  9
$LATITUDE
 40
37.795
  9
$LONGITUDE
 40
-122.394
  9
$NORTHDIRECTION
 40
0.0
  9
$TIMEZONE
 70
 -8000
  9
$LIGHTGLYPHDISPLAY
280
     1
  9
$TILEMODELIGHTSYNCH
280
     1
  9
$CMATERIAL
347
3C
  9
$SOLIDHIST
280
     1
  9
$SHOWHIST
280
     1
  9
$DWFFRAME
280
     2
  9
$DGNFRAME
280
     2
  9
$REALWORLDSCALE
290
     1
  9
$INTERFERECOLOR
 62
   256
  9
$CSHADOW
280
     0
  9
$SHADOWPLANELOCATION
 40
0.0
  0
ENDSEC
  0
SECTION
  2
CLASSES
  0
CLASS
  1
ACDBDICTIONARYWDFLT
  2
AcDbDictionaryWithDefault
  3
ObjectDBX Classes
 90
        0
 91
        4
280
     0
281
     0
  0
CLASS
  1
VISUALSTYLE
  2
AcDbVisualStyle
  3
ObjectDBX Classes
 90
     4095
 91
        4
280
     0
281
     0
  0
CLASS
  1
MATERIAL
  2
AcDbMaterial
  3
ObjectDBX Classes
 90
     1153
 91
        4
280
     0
281
     0
  0
CLASS
  1
SUN
  2
AcDbSun
  3
SCENEOE
 90
     1024
 91
        4
280
     0
281
     0
  0
ENDSEC
  0
SECTION
  2
TABLES
  0
TABLE
  2
VPORT
  5
8
330
0
100
AcDbSymbolTable
 70
     1
  0
VPORT
  5
29
330
8
100
AcDbSymbolTableRecord
100
AcDbViewportTableRecord
  2
*Active
 70
     0
 10
0.0
 20
0.0
 11
1.0
 21
1.0
 12
0.0
 22
0.0
 13
0.0
 23
0.0
 14
0.5
 24
0.5
 15
0.5
 25
0.5
 16
0.0
 26
0.0
 36
1.0
 17
-465.9160342285691
 27
-285.5848818952354
 37
0.0
 40
1589.190627930714
 41
1.526504609929075
 42
50.0
 43
0.0
 44
0.0
 50
0.0
 51
0.0
 71
     0
 72
   100
 73
     1
 74
     3
 75
     0
 76
     0
 77
     0
 78
     0
281
     0
 65
     1
110
0.0
120
0.0
130
0.0
111
1.0
121
0.0
131
0.0
112
0.0
122
1.0
132
0.0
 79
     0
146
0.0
 60
     3
 61
     5
292
     1
282
     1
141
0.0
142
0.0
 63
   250
361
3F
  0
ENDTAB
  0
TABLE
  2
LTYPE
  5
5
330
0
100
AcDbSymbolTable
 70
     1
  0
LTYPE
  5
14
330
5
100
AcDbSymbolTableRecord
100
AcDbLinetypeTableRecord
  2
ByBlock
 70
     0
  3

 72
    65
 73
     0
 40
0.0
  0
LTYPE
  5
15
330
5
100
AcDbSymbolTableRecord
100
AcDbLinetypeTableRecord
  2
ByLayer
 70
     0
  3

 72
    65
 73
     0
 40
0.0
  0
LTYPE
  5
16
330
5
100
AcDbSymbolTableRecord
100
AcDbLinetypeTableRecord
  2
Continuous
 70
     0
  3
Solid line
 72
    65
 73
     0
 40
0.0
  0
ENDTAB
  0
TABLE
  2
LAYER
  5
2
330
0
100
AcDbSymbolTable
 70
     2
  0
LAYER
  5
10
330
2
100
AcDbSymbolTableRecord
100
AcDbLayerTableRecord
  2
0
 70
     0
 62
     7
  6
Continuous
370
    -3
390
F
347
3E
  0
LAYER
  5
40
330
2
100
AcDbSymbolTableRecord
100
AcDbLayerTableRecord
  2
Layer 1
 70
     0
 62
     7
  6
Continuous
370
    -3
390
F
347
3E
  0
ENDTAB
  0
TABLE
  2
STYLE
  5
3
330
0
100
AcDbSymbolTable
 70
     1
  0
STYLE
  5
11
330
3
100
AcDbSymbolTableRecord
100
AcDbTextStyleTableRecord
  2
Standard
 70
     0
 40
0.0
 41
1.0
 50
0.0
 71
     0
 42
0.2
  3
txt
  4

  0
ENDTAB
  0
TABLE
  2
VIEW
  5
6
330
0
100
AcDbSymbolTable
 70
     0
  0
ENDTAB
  0
TABLE
  2
UCS
  5
7
330
0
100
AcDbSymbolTable
 70
     0
  0
ENDTAB
  0
TABLE
  2
APPID
  5
9
330
0
100
AcDbSymbolTable
 70
     1
  0
APPID
  5
12
330
9
100
AcDbSymbolTableRecord
100
AcDbRegAppTableRecord
  2
ACAD
 70
     0
  0
ENDTAB
  0
TABLE
  2
DIMSTYLE
  5
A
330
0
100
AcDbSymbolTable
 70
     1
100
AcDbDimStyleTable
  0
DIMSTYLE
105
27
330
A
100
AcDbSymbolTableRecord
100
AcDbDimStyleTableRecord
  2
Standard
 70
     0
178
     0
340
11
  0
ENDTAB
  0
TABLE
  2
BLOCK_RECORD
  5
1
330
0
100
AcDbSymbolTable
 70
    51
  0
BLOCK_RECORD
  5
1F
330
1
100
AcDbSymbolTableRecord
100
AcDbBlockTableRecord
  2
*Model_Space
340
22
 70
     0
280
     1
281
     0
  0
BLOCK_RECORD
  5
1B
330
1
100
AcDbSymbolTableRecord
100
AcDbBlockTableRecord
  2
*Paper_Space
340
1E
 70
     0
280
     1
281
     0
  0
BLOCK_RECORD
  5
23
330
1
100
AcDbSymbolTableRecord
100
AcDbBlockTableRecord
  2
*Paper_Space0
340
26
 70
     0
280
     1
281
     0
  0
BLOCK_RECORD
  5
238
330
1
100
AcDbSymbolTableRecord
100
AcDbBlockTableRecord
  2
block 2
340
0
102
{BLKREFS
331
239
102
}
 70
     0
280
     1
281
     0
  0
BLOCK_RECORD
  5
240
330
1
100
AcDbSymbolTableRecord
100
AcDbBlockTableRecord
  2
block 3
340
0
102
{BLKREFS
331
241
102
}
 70
     0
280
     1
281
     0
  0
BLOCK_RECORD
  5
24B
330
1
100
AcDbSymbolTableRecord
100
AcDbBlockTableRecord
  2
block 4
340
0
102
{BLKREFS
331
24C
102
}
 70
     0
280
     1
281
     0
  0
BLOCK_RECORD
  5
253
330
1
100
AcDbSymbolTableRecord
100
AcDbBlockTableRecord
  2
block 5
340
0
102
{BLKREFS
331
254
102
}
 70
     0
280
     1
281
     0
  0
BLOCK_RECORD
  5
25E
330
1
100
AcDbSymbolTableRecord
100
AcDbBlockTableRecord
  2
block 6
340
0
102
{BLKREFS
331
25F
102
}
 70
     0
280
     1
281
     0
  0
BLOCK_RECORD
  5
266
330
1
100
AcDbSymbolTableRecord
100
AcDbBlockTableRecord
  2
block 7
340
0
102
{BLKREFS
331
267
102
}
 70
     0
280
     1
281
     0
  0
BLOCK_RECORD
  5
271
330
1
100
AcDbSymbolTableRecord
100
AcDbBlockTableRecord
  2
block 8
340
0
102
{BLKREFS
331
272
102
}
 70
     0
280
     1
281
     0
  0
BLOCK_RECORD
  5
279
330
1
100
AcDbSymbolTableRecord
100
AcDbBlockTableRecord
  2
block 9
340
0
102
{BLKREFS
331
27A
102
}
 70
     0
280
     1
281
     0
  0
BLOCK_RECORD
  5
284
330
1
100
AcDbSymbolTableRecord
100
AcDbBlockTableRecord
  2
block 10
340
0
102
{BLKREFS
331
285
102
}
 70
     0
280
     1
281
     0
  0
BLOCK_RECORD
  5
28C
330
1
100
AcDbSymbolTableRecord
100
AcDbBlockTableRecord
  2
block 11
340
0
102
{BLKREFS
331
28D
102
}
 70
     0
280
     1
281
     0
  0
BLOCK_RECORD
  5
297
330
1
100
AcDbSymbolTableRecord
100
AcDbBlockTableRecord
  2
block 12
340
0
102
{BLKREFS
331
298
102
}
 70
     0
280
     1
281
     0
  0
BLOCK_RECORD
  5
29F
330
1
100
AcDbSymbolTableRecord
100
AcDbBlockTableRecord
  2
block 13
340
0
102
{BLKREFS
331
2A0
102
}
 70
     0
280
     1
281
     0
  0
BLOCK_RECORD
  5
2BB
330
1
100
AcDbSymbolTableRecord
100
AcDbBlockTableRecord
  2
block 14
340
0
102
{BLKREFS
331
2BC
102
}
 70
     0
280
     1
281
     0
  0
BLOCK_RECORD
  5
2C4
330
1
100
AcDbSymbolTableRecord
100
AcDbBlockTableRecord
  2
block 15
340
0
102
{BLKREFS
331
2C5
102
}
 70
     0
280
     1
281
     0
  0
BLOCK_RECORD
  5
2D0
330
1
100
AcDbSymbolTableRecord
100
AcDbBlockTableRecord
  2
block 16
340
0
102
{BLKREFS
331
2D1
102
}
 70
     0
280
     1
281
     0
  0
BLOCK_RECORD
  5
2D8
330
1
100
AcDbSymbolTableRecord
100
AcDbBlockTableRecord
  2
block 17
340
0
102
{BLKREFS
331
2D9
102
}
 70
     0
280
     1
281
     0
  0
BLOCK_RECORD
  5
2E3
330
1
100
AcDbSymbolTableRecord
100
AcDbBlockTableRecord
  2
block 18
340
0
102
{BLKREFS
331
2E4
102
}
 70
     0
280
     1
281
     0
  0
BLOCK_RECORD
  5
2EB
330
1
100
AcDbSymbolTableRecord
100
AcDbBlockTableRecord
  2
block 19
340
0
102
{BLKREFS
331
2EC
102
}
 70
     0
280
     1
281
     0
  0
BLOCK_RECORD
  5
31A
330
1
100
AcDbSymbolTableRecord
100
AcDbBlockTableRecord
  2
block 20
340
0
102
{BLKREFS
331
31B
102
}
 70
     0
280
     1
281
     0
  0
BLOCK_RECORD
  5
322
330
1
100
AcDbSymbolTableRecord
100
AcDbBlockTableRecord
  2
block 21
340
0
102
{BLKREFS
331
323
102
}
 70
     0
280
     1
281
     0
  0
BLOCK_RECORD
  5
32D
330
1
100
AcDbSymbolTableRecord
100
AcDbBlockTableRecord
  2
block 22
340
0
102
{BLKREFS
331
32E
102
}
 70
     0
280
     1
281
     0
  0
BLOCK_RECORD
  5
335
330
1
100
AcDbSymbolTableRecord
100
AcDbBlockTableRecord
  2
block 23
340
0
102
{BLKREFS
331
336
102
}
 70
     0
280
     1
281
     0
  0
BLOCK_RECORD
  5
340
330
1
100
AcDbSymbolTableRecord
100
AcDbBlockTableRecord
  2
block 24
340
0
102
{BLKREFS
331
341
102
}
 70
     0
280
     1
281
     0
  0
BLOCK_RECORD
  5
348
330
1
100
AcDbSymbolTableRecord
100
AcDbBlockTableRecord
  2
block 25
340
0
102
{BLKREFS
331
349
102
}
 70
     0
280
     1
281
     0
  0
BLOCK_RECORD
  5
353
330
1
100
AcDbSymbolTableRecord
100
AcDbBlockTableRecord
  2
block 26
340
0
102
{BLKREFS
331
354
102
}
 70
     0
280
     1
281
     0
  0
BLOCK_RECORD
  5
35B
330
1
100
AcDbSymbolTableRecord
100
AcDbBlockTableRecord
  2
block 27
340
0
102
{BLKREFS
331
35C
102
}
 70
     0
280
     1
281
     0
  0
BLOCK_RECORD
  5
366
330
1
100
AcDbSymbolTableRecord
100
AcDbBlockTableRecord
  2
block 28
340
0
102
{BLKREFS
331
367
102
}
 70
     0
280
     1
281
     0
  0
BLOCK_RECORD
  5
36E
330
1
100
AcDbSymbolTableRecord
100
AcDbBlockTableRecord
  2
block 29
340
0
102
{BLKREFS
331
36F
102
}
 70
     0
280
     1
281
     0
  0
BLOCK_RECORD
  5
379
330
1
100
AcDbSymbolTableRecord
100
AcDbBlockTableRecord
  2
block 30
340
0
102
{BLKREFS
331
37A
102
}
 70
     0
280
     1
281
     0
  0
BLOCK_RECORD
  5
381
330
1
100
AcDbSymbolTableRecord
100
AcDbBlockTableRecord
  2
block 31
340
0
102
{BLKREFS
331
382
102
}
 70
     0
280
     1
281
     0
  0
BLOCK_RECORD
  5
395
330
1
100
AcDbSymbolTableRecord
100
AcDbBlockTableRecord
  2
block 32
340
0
102
{BLKREFS
331
396
102
}
 70
     0
280
     1
281
     0
  0
BLOCK_RECORD
  5
39D
330
1
100
AcDbSymbolTableRecord
100
AcDbBlockTableRecord
  2
block 33
340
0
102
{BLKREFS
331
39E
102
}
 70
     0
280
     1
281
     0
  0
BLOCK_RECORD
  5
3A8
330
1
100
AcDbSymbolTableRecord
100
AcDbBlockTableRecord
  2
block 34
340
0
102
{BLKREFS
331
3A9
102
}
 70
     0
280
     1
281
     0
  0
BLOCK_RECORD
  5
3B0
330
1
100
AcDbSymbolTableRecord
100
AcDbBlockTableRecord
  2
block 35
340
0
102
{BLKREFS
331
3B1
102
}
 70
     0
280
     1
281
     0
  0
BLOCK_RECORD
  5
3BB
330
1
100
AcDbSymbolTableRecord
100
AcDbBlockTableRecord
  2
block 36
340
0
102
{BLKREFS
331
3BC
102
}
 70
     0
280
     1
281
     0
  0
BLOCK_RECORD
  5
3C0
330
1
100
AcDbSymbolTableRecord
100
AcDbBlockTableRecord
  2
block 37
340
0
102
{BLKREFS
331
3C1
102
}
 70
     0
280
     1
281
     0
  0
BLOCK_RECORD
  5
3C5
330
1
100
AcDbSymbolTableRecord
100
AcDbBlockTableRecord
  2
block 38
340
0
102
{BLKREFS
331
3C6
102
}
 70
     0
280
     1
281
     0
  0
BLOCK_RECORD
  5
3CB
330
1
100
AcDbSymbolTableRecord
100
AcDbBlockTableRecord
  2
block 39
340
0
102
{BLKREFS
331
3CC
102
}
 70
     0
280
     1
281
     0
  0
BLOCK_RECORD
  5
3D0
330
1
100
AcDbSymbolTableRecord
100
AcDbBlockTableRecord
  2
block 40
340
0
102
{BLKREFS
331
3D1
102
}
 70
     0
280
     1
281
     0
  0
BLOCK_RECORD
  5
3D5
330
1
100
AcDbSymbolTableRecord
100
AcDbBlockTableRecord
  2
block 41
340
0
102
{BLKREFS
331
3D6
102
}
 70
     0
280
     1
281
     0
  0
BLOCK_RECORD
  5
3DA
330
1
100
AcDbSymbolTableRecord
100
AcDbBlockTableRecord
  2
block 42
340
0
102
{BLKREFS
331
3DB
102
}
 70
     0
280
     1
281
     0
  0
BLOCK_RECORD
  5
3DF
330
1
100
AcDbSymbolTableRecord
100
AcDbBlockTableRecord
  2
block 43
340
0
102
{BLKREFS
331
3E0
102
}
 70
     0
280
     1
281
     0
  0
BLOCK_RECORD
  5
3E4
330
1
100
AcDbSymbolTableRecord
100
AcDbBlockTableRecord
  2
block 44
340
0
102
{BLKREFS
331
3E5
102
}
 70
     0
280
     1
281
     0
  0
BLOCK_RECORD
  5
3E9
330
1
100
AcDbSymbolTableRecord
100
AcDbBlockTableRecord
  2
block 45
340
0
102
{BLKREFS
331
3EA
102
}
 70
     0
280
     1
281
     0
  0
BLOCK_RECORD
  5
3EE
330
1
100
AcDbSymbolTableRecord
100
AcDbBlockTableRecord
  2
block 46
340
0
102
{BLKREFS
331
3EF
102
}
 70
     0
280
     1
281
     0
  0
BLOCK_RECORD
  5
3FA
330
1
100
AcDbSymbolTableRecord
100
AcDbBlockTableRecord
  2
block 47
340
0
102
{BLKREFS
331
3FB
102
}
 70
     0
280
     1
281
     0
  0
BLOCK_RECORD
  5
3FF
330
1
100
AcDbSymbolTableRecord
100
AcDbBlockTableRecord
  2
block 48
340
0
102
{BLKREFS
331
400
102
}
 70
     0
280
     1
281
     0
  0
BLOCK_RECORD
  5
404
330
1
100
AcDbSymbolTableRecord
100
AcDbBlockTableRecord
  2
block 49
340
0
102
{BLKREFS
331
405
102
}
 70
     0
280
     1
281
     0
  0
BLOCK_RECORD
  5
409
330
1
100
AcDbSymbolTableRecord
100
AcDbBlockTableRecord
  2
block 50
340
0
102
{BLKREFS
331
40A
102
}
 70
     0
280
     1
281
     0
  0
BLOCK_RECORD
  5
40E
330
1
100
AcDbSymbolTableRecord
100
AcDbBlockTableRecord
  2
block 51
340
0
102
{BLKREFS
331
40F
102
}
 70
     0
280
     1
281
     0
  0
ENDTAB
  0
ENDSEC
  0
SECTION
  2
BLOCKS
  0
BLOCK
  5
20
330
1F
100
AcDbEntity
  8
0
100
AcDbBlockBegin
  2
*Model_Space
 70
     0
 10
0.0
 20
0.0
 30
0.0
  3
*Model_Space
  1

  0
ENDBLK
  5
21
330
1F
100
AcDbEntity
  8
0
100
AcDbBlockEnd
  0
BLOCK
  5
1C
330
1B
100
AcDbEntity
 67
     1
  8
0
100
AcDbBlockBegin
  2
*Paper_Space
 70
     0
 10
0.0
 20
0.0
 30
0.0
  3
*Paper_Space
  1

  0
ENDBLK
  5
1D
330
1B
100
AcDbEntity
 67
     1
  8
0
100
AcDbBlockEnd
  0
BLOCK
  5
24
330
23
100
AcDbEntity
  8
0
100
AcDbBlockBegin
  2
*Paper_Space0
 70
     0
 10
0.0
 20
0.0
 30
0.0
  3
*Paper_Space0
  1

  0
ENDBLK
  5
25
330
23
100
AcDbEntity
  8
0
100
AcDbBlockEnd
  0
BLOCK
  5
23A
330
238
100
AcDbEntity
  8
0
100
AcDbBlockBegin
  2
block 2
 70
     0
 10
0.0
 20
0.0
 30
0.0
  3
block 2
  1

  0
POLYLINE
  5
23C
330
238
100
AcDbEntity
  8
Layer 1
 62
     7
420
 16777215
370
    20
100
AcDb2dPolyline
 66
     1
 10
0.0
 20
0.0
 30
0.0
  0
VERTEX
  5
23D
330
23C
100
AcDbEntity
  8
Layer 1
 62
     7
420
 16777215
370
    20
100
AcDbVertex
100
AcDb2dVertex
 10
-901.5363477479815
 20
151.4676715763092
 30
0.0
  0
VERTEX
  5
23E
330
23C
100
AcDbEntity
  8
Layer 1
 62
     7
420
 16777215
370
    20
100
AcDbVertex
100
AcDb2dVertex
 10
-901.5363477479815
 20
51.77016040779314
 30
0.0
  0
SEQEND
  5
23F
330
23C
100
AcDbEntity
  8
Layer 1
 62
     7
420
 16777215
370
    20
  0
INSERT
  5
241
330
238
100
AcDbEntity
  8
Layer 1
100
AcDbBlockReference
  2
block 3
 10
0.0
 20
0.0
 30
0.0
  0
ENDBLK
  5
23B
330
238
100
AcDbEntity
  8
0
100
AcDbBlockEnd
  0
BLOCK
  5
242
330
240
100
AcDbEntity
  8
0
100
AcDbBlockBegin
  2
block 3
 70
     0
 10
0.0
 20
0.0
 30
0.0
  3
block 3
  1

  0
POLYLINE
  5
244
330
240
100
AcDbEntity
  8
Layer 1
370
     0
100
AcDb2dPolyline
 66
     1
 10
0.0
 20
0.0
 30
0.0
  0
VERTEX
  5
245
330
244
100
AcDbEntity
  8
Layer 1
370
     0
100
AcDbVertex
100
AcDb2dVertex
 10
-905.5644288276777
 20
148.7204257570877
 30
0.0
  0
VERTEX
  5
246
330
244
100
AcDbEntity
  8
Layer 1
370
     0
100
AcDbVertex
100
AcDb2dVertex
 10
-901.5363477479815
 20
163.7509427368385
 30
0.0
  0
VERTEX
  5
247
330
244
100
AcDbEntity
  8
Layer 1
370
     0
100
AcDbVertex
100
AcDb2dVertex
 10
-897.5082853265712
 20
148.7204257570877
 30
0.0
  0
VERTEX
  5
248
330
244
100
AcDbEntity
  8
Layer 1
370
     0
100
AcDbVertex
100
AcDb2dVertex
 10
-905.5644288276777
 20
148.7204257570877
 30
0.0
  0
SEQEND
  5
24A
330
244
100
AcDbEntity
  8
Layer 1
370
     0
  0
HATCH
  5
249
330
240
100
AcDbEntity
  8
Layer 1
 62
     7
420
 16777215
100
AcDbHatch
 10
0.0
 20
0.0
 30
0.0
210
0.0
220
0.0
230
1.0
  2
SOLID
 70
     1
 71
     0
 91
        1
 92
        1
 93
        3
 72
     1
 10
-905.5644288276777
 20
148.7204257570877
 11
-901.5363477479815
 21
163.7509427368385
 72
     1
 10
-901.5363477479815
 20
163.7509427368385
 11
-897.5082853265712
 21
148.7204257570877
 72
     1
 10
-897.5082853265712
 20
148.7204257570877
 11
-905.5644288276777
 21
148.7204257570877
 97
        0
 75
     2
 76
     1
 98
        0
  0
ENDBLK
  5
243
330
240
100
AcDbEntity
  8
0
100
AcDbBlockEnd
  0
BLOCK
  5
24D
330
24B
100
AcDbEntity
  8
0
100
AcDbBlockBegin
  2
block 4
 70
     0
 10
0.0
 20
0.0
 30
0.0
  3
block 4
  1

  0
POLYLINE
  5
24F
330
24B
100
AcDbEntity
  8
Layer 1
 62
     7
420
 16777215
370
    20
100
AcDb2dPolyline
 66
     1
 10
0.0
 20
0.0
 30
0.0
  0
VERTEX
  5
250
330
24F
100
AcDbEntity
  8
Layer 1
 62
     7
420
 16777215
370
    20
100
AcDbVertex
100
AcDb2dVertex
 10
38.20573281358195
 20
111.2963367015126
 30
0.0
  0
VERTEX
  5
251
330
24F
100
AcDbEntity
  8
Layer 1
 62
     7
420
 16777215
370
    20
100
AcDbVertex
100
AcDb2dVertex
 10
38.20573281798272
 20
160.3099881736827
 30
0.0
  0
SEQEND
  5
252
330
24F
100
AcDbEntity
  8
Layer 1
 62
     7
420
 16777215
370
    20
  0
INSERT
  5
254
330
24B
100
AcDbEntity
  8
Layer 1
100
AcDbBlockReference
  2
block 5
 10
0.0
 20
0.0
 30
0.0
  0
ENDBLK
  5
24E
330
24B
100
AcDbEntity
  8
0
100
AcDbBlockEnd
  0
BLOCK
  5
255
330
253
100
AcDbEntity
  8
0
100
AcDbBlockBegin
  2
block 5
 70
     0
 10
0.0
 20
0.0
 30
0.0
  3
block 5
  1

  0
POLYLINE
  5
257
330
253
100
AcDbEntity
  8
Layer 1
370
     0
100
AcDb2dPolyline
 66
     1
 10
0.0
 20
0.0
 30
0.0
  0
VERTEX
  5
258
330
257
100
AcDbEntity
  8
Layer 1
370
     0
100
AcDbVertex
100
AcDb2dVertex
 10
42.23381389352176
 20
114.0435825203715
 30
0.0
  0
VERTEX
  5
259
330
257
100
AcDbEntity
  8
Layer 1
370
     0
100
AcDbVertex
100
AcDb2dVertex
 10
38.20573281247886
 20
99.01306554098333
 30
0.0
  0
VERTEX
  5
25A
330
257
100
AcDbEntity
  8
Layer 1
370
     0
100
AcDbVertex
100
AcDb2dVertex
 10
34.1776703924188
 20
114.0435825210947
 30
0.0
  0
VERTEX
  5
25B
330
257
100
AcDbEntity
  8
Layer 1
370
     0
100
AcDbVertex
100
AcDb2dVertex
 10
42.23381389352176
 20
114.0435825203715
 30
0.0
  0
SEQEND
  5
25D
330
257
100
AcDbEntity
  8
Layer 1
370
     0
  0
HATCH
  5
25C
330
253
100
AcDbEntity
  8
Layer 1
 62
     7
420
 16777215
100
AcDbHatch
 10
0.0
 20
0.0
 30
0.0
210
0.0
220
0.0
230
1.0
  2
SOLID
 70
     1
 71
     0
 91
        1
 92
        1
 93
        3
 72
     1
 10
42.23381389352176
 20
114.0435825203715
 11
38.20573281247886
 21
99.01306554098333
 72
     1
 10
38.20573281247886
 20
99.01306554098333
 11
34.1776703924188
 21
114.0435825210947
 72
     1
 10
34.1776703924188
 20
114.0435825210947
 11
42.23381389352176
 21
114.0435825203715
 97
        0
 75
     2
 76
     1
 98
        0
  0
ENDBLK
  5
256
330
253
100
AcDbEntity
  8
0
100
AcDbBlockEnd
  0
BLOCK
  5
260
330
25E
100
AcDbEntity
  8
0
100
AcDbBlockBegin
  2
block 6
 70
     0
 10
0.0
 20
0.0
 30
0.0
  3
block 6
  1

  0
POLYLINE
  5
262
330
25E
100
AcDbEntity
  8
Layer 1
 62
     7
420
 16777215
370
    20
100
AcDb2dPolyline
 66
     1
 10
0.0
 20
0.0
 30
0.0
  0
VERTEX
  5
263
330
262
100
AcDbEntity
  8
Layer 1
 62
     7
420
 16777215
370
    20
100
AcDbVertex
100
AcDb2dVertex
 10
38.20573282540332
 20
242.9532562910111
 30
0.0
  0
VERTEX
  5
264
330
262
100
AcDbEntity
  8
Layer 1
 62
     7
420
 16777215
370
    20
100
AcDbVertex
100
AcDb2dVertex
 10
38.20573282293984
 20
215.5137547214304
 30
0.0
  0
SEQEND
  5
265
330
262
100
AcDbEntity
  8
Layer 1
 62
     7
420
 16777215
370
    20
  0
INSERT
  5
267
330
25E
100
AcDbEntity
  8
Layer 1
100
AcDbBlockReference
  2
block 7
 10
0.0
 20
0.0
 30
0.0
  0
ENDBLK
  5
261
330
25E
100
AcDbEntity
  8
0
100
AcDbBlockEnd
  0
BLOCK
  5
268
330
266
100
AcDbEntity
  8
0
100
AcDbBlockBegin
  2
block 7
 70
     0
 10
0.0
 20
0.0
 30
0.0
  3
block 7
  1

  0
POLYLINE
  5
26A
330
266
100
AcDbEntity
  8
Layer 1
370
     0
100
AcDb2dPolyline
 66
     1
 10
0.0
 20
0.0
 30
0.0
  0
VERTEX
  5
26B
330
26A
100
AcDbEntity
  8
Layer 1
370
     0
100
AcDbVertex
100
AcDb2dVertex
 10
34.17765174546096
 20
240.2060104721522
 30
0.0
  0
VERTEX
  5
26C
330
26A
100
AcDbEntity
  8
Layer 1
370
     0
100
AcDbVertex
100
AcDb2dVertex
 10
38.20573282650641
 20
255.2365274515404
 30
0.0
  0
VERTEX
  5
26D
330
26A
100
AcDbEntity
  8
Layer 1
370
     0
100
AcDbVertex
100
AcDb2dVertex
 10
42.23379524657097
 20
240.2060104714287
 30
0.0
  0
VERTEX
  5
26E
330
26A
100
AcDbEntity
  8
Layer 1
370
     0
100
AcDbVertex
100
AcDb2dVertex
 10
34.17765174546096
 20
240.2060104721522
 30
0.0
  0
SEQEND
  5
270
330
26A
100
AcDbEntity
  8
Layer 1
370
     0
  0
HATCH
  5
26F
330
266
100
AcDbEntity
  8
Layer 1
 62
     7
420
 16777215
100
AcDbHatch
 10
0.0
 20
0.0
 30
0.0
210
0.0
220
0.0
230
1.0
  2
SOLID
 70
     1
 71
     0
 91
        1
 92
        1
 93
        3
 72
     1
 10
34.17765174546096
 20
240.2060104721522
 11
38.20573282650641
 21
255.2365274515404
 72
     1
 10
38.20573282650641
 20
255.2365274515404
 11
42.23379524657097
 21
240.2060104714287
 72
     1
 10
42.23379524657097
 20
240.2060104714287
 11
34.17765174546096
 21
240.2060104721522
 97
        0
 75
     2
 76
     1
 98
        0
  0
ENDBLK
  5
269
330
266
100
AcDbEntity
  8
0
100
AcDbBlockEnd
  0
BLOCK
  5
273
330
271
100
AcDbEntity
  8
0
100
AcDbBlockBegin
  2
block 8
 70
     0
 10
0.0
 20
0.0
 30
0.0
  3
block 8
  1

  0
POLYLINE
  5
275
330
271
100
AcDbEntity
  8
Layer 1
 62
     7
420
 16777215
370
    20
100
AcDb2dPolyline
 66
     1
 10
0.0
 20
0.0
 30
0.0
  0
VERTEX
  5
276
330
275
100
AcDbEntity
  8
Layer 1
 62
     7
420
 16777215
370
    20
100
AcDbVertex
100
AcDb2dVertex
 10
-901.5363664062679
 20
-170.3808584133139
 30
0.0
  0
VERTEX
  5
277
330
275
100
AcDbEntity
  8
Layer 1
 62
     7
420
 16777215
370
    20
100
AcDbVertex
100
AcDb2dVertex
 10
-901.5363477479815
 20
-13.16711545643986
 30
0.0
  0
SEQEND
  5
278
330
275
100
AcDbEntity
  8
Layer 1
 62
     7
420
 16777215
370
    20
  0
INSERT
  5
27A
330
271
100
AcDbEntity
  8
Layer 1
100
AcDbBlockReference
  2
block 9
 10
0.0
 20
0.0
 30
0.0
  0
ENDBLK
  5
274
330
271
100
AcDbEntity
  8
0
100
AcDbBlockEnd
  0
BLOCK
  5
27B
330
279
100
AcDbEntity
  8
0
100
AcDbBlockBegin
  2
block 9
 70
     0
 10
0.0
 20
0.0
 30
0.0
  3
block 9
  1

  0
POLYLINE
  5
27D
330
279
100
AcDbEntity
  8
Layer 1
370
     0
100
AcDb2dPolyline
 66
     1
 10
0.0
 20
0.0
 30
0.0
  0
VERTEX
  5
27E
330
27D
100
AcDbEntity
  8
Layer 1
370
     0
100
AcDbVertex
100
AcDb2dVertex
 10
-897.5083039848577
 20
-167.6336125940923
 30
0.0
  0
VERTEX
  5
27F
330
27D
100
AcDbEntity
  8
Layer 1
370
     0
100
AcDbVertex
100
AcDb2dVertex
 10
-901.5363664062679
 20
-182.6639803075667
 30
0.0
  0
VERTEX
  5
280
330
27D
100
AcDbEntity
  8
Layer 1
370
     0
100
AcDbVertex
100
AcDb2dVertex
 10
-905.5644474859606
 20
-167.6336125940923
 30
0.0
  0
VERTEX
  5
281
330
27D
100
AcDbEntity
  8
Layer 1
370
     0
100
AcDbVertex
100
AcDb2dVertex
 10
-897.5083039848577
 20
-167.6336125940923
 30
0.0
  0
SEQEND
  5
283
330
27D
100
AcDbEntity
  8
Layer 1
370
     0
  0
HATCH
  5
282
330
279
100
AcDbEntity
  8
Layer 1
 62
     7
420
 16777215
100
AcDbHatch
 10
0.0
 20
0.0
 30
0.0
210
0.0
220
0.0
230
1.0
  2
SOLID
 70
     1
 71
     0
 91
        1
 92
        1
 93
        3
 72
     1
 10
-897.5083039848577
 20
-167.6336125940923
 11
-901.5363664062679
 21
-182.6639803075667
 72
     1
 10
-901.5363664062679
 20
-182.6639803075667
 11
-905.5644474859606
 21
-167.6336125940923
 72
     1
 10
-905.5644474859606
 20
-167.6336125940923
 11
-897.5083039848577
 21
-167.6336125940923
 97
        0
 75
     2
 76
     1
 98
        0
  0
ENDBLK
  5
27C
330
279
100
AcDbEntity
  8
0
100
AcDbBlockEnd
  0
BLOCK
  5
286
330
284
100
AcDbEntity
  8
0
100
AcDbBlockBegin
  2
block 10
 70
     0
 10
0.0
 20
0.0
 30
0.0
  3
block 10
  1

  0
POLYLINE
  5
288
330
284
100
AcDbEntity
  8
Layer 1
 62
     7
420
 16777215
370
    20
100
AcDb2dPolyline
 66
     1
 10
0.0
 20
0.0
 30
0.0
  0
VERTEX
  5
289
330
288
100
AcDbEntity
  8
Layer 1
 62
     7
420
 16777215
370
    20
100
AcDbVertex
100
AcDb2dVertex
 10
-948.0022865865102
 20
241.0129433541043
 30
0.0
  0
VERTEX
  5
28A
330
288
100
AcDbEntity
  8
Layer 1
 62
     7
420
 16777215
370
    20
100
AcDbVertex
100
AcDb2dVertex
 10
-948.0022865865102
 20
51.77016040779314
 30
0.0
  0
SEQEND
  5
28B
330
288
100
AcDbEntity
  8
Layer 1
 62
     7
420
 16777215
370
    20
  0
INSERT
  5
28D
330
284
100
AcDbEntity
  8
Layer 1
100
AcDbBlockReference
  2
block 11
 10
0.0
 20
0.0
 30
0.0
  0
ENDBLK
  5
287
330
284
100
AcDbEntity
  8
0
100
AcDbBlockEnd
  0
BLOCK
  5
28E
330
28C
100
AcDbEntity
  8
0
100
AcDbBlockBegin
  2
block 11
 70
     0
 10
0.0
 20
0.0
 30
0.0
  3
block 11
  1

  0
POLYLINE
  5
290
330
28C
100
AcDbEntity
  8
Layer 1
370
     0
100
AcDb2dPolyline
 66
     1
 10
0.0
 20
0.0
 30
0.0
  0
VERTEX
  5
291
330
290
100
AcDbEntity
  8
Layer 1
370
     0
100
AcDbVertex
100
AcDb2dVertex
 10
-952.0303490079169
 20
238.2656975348835
 30
0.0
  0
VERTEX
  5
292
330
290
100
AcDbEntity
  8
Layer 1
370
     0
100
AcDbVertex
100
AcDb2dVertex
 10
-948.0022865865102
 20
253.2962145146336
 30
0.0
  0
VERTEX
  5
293
330
290
100
AcDbEntity
  8
Layer 1
370
     0
100
AcDbVertex
100
AcDb2dVertex
 10
-943.9742241651
 20
238.2656975348835
 30
0.0
  0
VERTEX
  5
294
330
290
100
AcDbEntity
  8
Layer 1
370
     0
100
AcDbVertex
100
AcDb2dVertex
 10
-952.0303490079169
 20
238.2656975348835
 30
0.0
  0
SEQEND
  5
296
330
290
100
AcDbEntity
  8
Layer 1
370
     0
  0
HATCH
  5
295
330
28C
100
AcDbEntity
  8
Layer 1
 62
     7
420
 16777215
100
AcDbHatch
 10
0.0
 20
0.0
 30
0.0
210
0.0
220
0.0
230
1.0
  2
SOLID
 70
     1
 71
     0
 91
        1
 92
        1
 93
        3
 72
     1
 10
-952.0303490079169
 20
238.2656975348835
 11
-948.0022865865102
 21
253.2962145146336
 72
     1
 10
-948.0022865865102
 20
253.2962145146336
 11
-943.9742241651
 21
238.2656975348835
 72
     1
 10
-943.9742241651
 20
238.2656975348835
 11
-952.0303490079169
 21
238.2656975348835
 97
        0
 75
     2
 76
     1
 98
        0
  0
ENDBLK
  5
28F
330
28C
100
AcDbEntity
  8
0
100
AcDbBlockEnd
  0
BLOCK
  5
299
330
297
100
AcDbEntity
  8
0
100
AcDbBlockBegin
  2
block 12
 70
     0
 10
0.0
 20
0.0
 30
0.0
  3
block 12
  1

  0
POLYLINE
  5
29B
330
297
100
AcDbEntity
  8
Layer 1
 62
     7
420
 16777215
370
    20
100
AcDb2dPolyline
 66
     1
 10
0.0
 20
0.0
 30
0.0
  0
VERTEX
  5
29C
330
29B
100
AcDbEntity
  8
Layer 1
 62
     7
420
 16777215
370
    20
100
AcDbVertex
100
AcDb2dVertex
 10
-948.0023239030824
 20
-199.6642054814344
 30
0.0
  0
VERTEX
  5
29D
330
29B
100
AcDbEntity
  8
Layer 1
 62
     7
420
 16777215
370
    20
100
AcDbVertex
100
AcDb2dVertex
 10
-948.0023239030824
 20
-9.26039513250478
 30
0.0
  0
SEQEND
  5
29E
330
29B
100
AcDbEntity
  8
Layer 1
 62
     7
420
 16777215
370
    20
  0
INSERT
  5
2A0
330
297
100
AcDbEntity
  8
Layer 1
100
AcDbBlockReference
  2
block 13
 10
0.0
 20
0.0
 30
0.0
  0
ENDBLK
  5
29A
330
297
100
AcDbEntity
  8
0
100
AcDbBlockEnd
  0
BLOCK
  5
2A1
330
29F
100
AcDbEntity
  8
0
100
AcDbBlockBegin
  2
block 13
 70
     0
 10
0.0
 20
0.0
 30
0.0
  3
block 13
  1

  0
POLYLINE
  5
2A3
330
29F
100
AcDbEntity
  8
Layer 1
370
     0
100
AcDb2dPolyline
 66
     1
 10
0.0
 20
0.0
 30
0.0
  0
VERTEX
  5
2A4
330
2A3
100
AcDbEntity
  8
Layer 1
370
     0
100
AcDbVertex
100
AcDb2dVertex
 10
-943.9742614816724
 20
-196.9170342953508
 30
0.0
  0
VERTEX
  5
2A5
330
2A3
100
AcDbEntity
  8
Layer 1
370
     0
100
AcDbVertex
100
AcDb2dVertex
 10
-948.0023239030824
 20
-211.9474766419637
 30
0.0
  0
VERTEX
  5
2A6
330
2A3
100
AcDbEntity
  8
Layer 1
370
     0
100
AcDbVertex
100
AcDb2dVertex
 10
-952.0304049827754
 20
-196.9170342953508
 30
0.0
  0
VERTEX
  5
2A7
330
2A3
100
AcDbEntity
  8
Layer 1
370
     0
100
AcDbVertex
100
AcDb2dVertex
 10
-943.9742614816724
 20
-196.9170342953508
 30
0.0
  0
SEQEND
  5
2A9
330
2A3
100
AcDbEntity
  8
Layer 1
370
     0
  0
HATCH
  5
2A8
330
29F
100
AcDbEntity
  8
Layer 1
 62
     7
420
 16777215
100
AcDbHatch
 10
0.0
 20
0.0
 30
0.0
210
0.0
220
0.0
230
1.0
  2
SOLID
 70
     1
 71
     0
 91
        1
 92
        1
 93
        3
 72
     1
 10
-943.9742614816724
 20
-196.9170342953508
 11
-948.0023239030824
 21
-211.9474766419637
 72
     1
 10
-948.0023239030824
 20
-211.9474766419637
 11
-952.0304049827754
 21
-196.9170342953508
 72
     1
 10
-952.0304049827754
 20
-196.9170342953508
 11
-943.9742614816724
 21
-196.9170342953508
 97
        0
 75
     2
 76
     1
 98
        0
  0
ENDBLK
  5
2A2
330
29F
100
AcDbEntity
  8
0
100
AcDbBlockEnd
  0
BLOCK
  5
2BD
330
2BB
100
AcDbEntity
  8
0
100
AcDbBlockBegin
  2
block 14
 70
     0
 10
0.0
 20
0.0
 30
0.0
  3
block 14
  1

  0
POLYLINE
  5
2BF
330
2BB
100
AcDbEntity
  8
Layer 1
 62
     7
420
 16777215
370
    20
100
AcDb2dPolyline
 66
     1
 10
0.0
 20
0.0
 30
0.0
  0
VERTEX
  5
2C0
330
2BF
100
AcDbEntity
  8
Layer 1
 62
     7
420
 16777215
370
    20
100
AcDbVertex
100
AcDb2dVertex
 10
-709.1197604286432
 20
-169.9777699292268
 30
0.0
  0
VERTEX
  5
2C1
330
2BF
100
AcDbEntity
  8
Layer 1
 62
     7
420
 16777215
370
    20
100
AcDbVertex
100
AcDb2dVertex
 10
-668.28756000626
 20
-115.4591580305211
 30
0.0
  0
VERTEX
  5
2C2
330
2BF
100
AcDbEntity
  8
Layer 1
 62
     7
420
 16777215
370
    20
100
AcDbVertex
100
AcDb2dVertex
 10
-628.0880620134441
 20
-115.4591580305211
 30
0.0
  0
SEQEND
  5
2C3
330
2BF
100
AcDbEntity
  8
Layer 1
 62
     7
420
 16777215
370
    20
  0
INSERT
  5
2C5
330
2BB
100
AcDbEntity
  8
Layer 1
100
AcDbBlockReference
  2
block 15
 10
0.0
 20
0.0
 30
0.0
  0
ENDBLK
  5
2BE
330
2BB
100
AcDbEntity
  8
0
100
AcDbBlockEnd
  0
BLOCK
  5
2C6
330
2C4
100
AcDbEntity
  8
0
100
AcDbBlockBegin
  2
block 15
 70
     0
 10
0.0
 20
0.0
 30
0.0
  3
block 15
  1

  0
POLYLINE
  5
2C8
330
2C4
100
AcDbEntity
  8
Layer 1
370
     0
100
AcDb2dPolyline
 66
     1
 10
0.0
 20
0.0
 30
0.0
  0
VERTEX
  5
2C9
330
2C8
100
AcDbEntity
  8
Layer 1
370
     0
100
AcDbVertex
100
AcDb2dVertex
 10
-704.248828660335
 20
-170.1936089650648
 30
0.0
  0
VERTEX
  5
2CA
330
2C8
100
AcDbEntity
  8
Layer 1
370
     0
100
AcDbVertex
100
AcDb2dVertex
 10
-716.4831404821684
 20
-179.8093424980308
 30
0.0
  0
VERTEX
  5
2CB
330
2C8
100
AcDbEntity
  8
Layer 1
370
     0
100
AcDbVertex
100
AcDb2dVertex
 10
-710.6969452228504
 20
-165.3642478547642
 30
0.0
  0
VERTEX
  5
2CC
330
2C8
100
AcDbEntity
  8
Layer 1
370
     0
100
AcDbVertex
100
AcDb2dVertex
 10
-704.248828660335
 20
-170.1936089650648
 30
0.0
  0
SEQEND
  5
2CE
330
2C8
100
AcDbEntity
  8
Layer 1
370
     0
  0
HATCH
  5
2CD
330
2C4
100
AcDbEntity
  8
Layer 1
 62
     7
420
 16777215
100
AcDbHatch
 10
0.0
 20
0.0
 30
0.0
210
0.0
220
0.0
230
1.0
  2
SOLID
 70
     1
 71
     0
 91
        1
 92
        1
 93
        3
 72
     1
 10
-704.248828660335
 20
-170.1936089650648
 11
-716.4831404821684
 21
-179.8093424980308
 72
     1
 10
-716.4831404821684
 20
-179.8093424980308
 11
-710.6969452228504
 21
-165.3642478547642
 72
     1
 10
-710.6969452228504
 20
-165.3642478547642
 11
-704.248828660335
 21
-170.1936089650648
 97
        0
 75
     2
 76
     1
 98
        0
  0
ENDBLK
  5
2C7
330
2C4
100
AcDbEntity
  8
0
100
AcDbBlockEnd
  0
BLOCK
  5
2D2
330
2D0
100
AcDbEntity
  8
0
100
AcDbBlockBegin
  2
block 16
 70
     0
 10
0.0
 20
0.0
 30
0.0
  3
block 16
  1

  0
POLYLINE
  5
2D4
330
2D0
100
AcDbEntity
  8
Layer 1
 62
     7
420
 16777215
370
    20
100
AcDb2dPolyline
 66
     1
 10
0.0
 20
0.0
 30
0.0
  0
VERTEX
  5
2D5
330
2D4
100
AcDbEntity
  8
Layer 1
 62
     7
420
 16777215
370
    20
100
AcDbVertex
100
AcDb2dVertex
 10
75.55201934674805
 20
-169.8750584903462
 30
0.0
  0
VERTEX
  5
2D6
330
2D4
100
AcDbEntity
  8
Layer 1
 62
     7
420
 16777215
370
    20
100
AcDbVertex
100
AcDb2dVertex
 10
75.55201933290853
 20
-32.54389698135638
 30
0.0
  0
SEQEND
  5
2D7
330
2D4
100
AcDbEntity
  8
Layer 1
 62
     7
420
 16777215
370
    20
  0
INSERT
  5
2D9
330
2D0
100
AcDbEntity
  8
Layer 1
100
AcDbBlockReference
  2
block 17
 10
0.0
 20
0.0
 30
0.0
  0
ENDBLK
  5
2D3
330
2D0
100
AcDbEntity
  8
0
100
AcDbBlockEnd
  0
BLOCK
  5
2DA
330
2D8
100
AcDbEntity
  8
0
100
AcDbBlockBegin
  2
block 17
 70
     0
 10
0.0
 20
0.0
 30
0.0
  3
block 17
  1

  0
POLYLINE
  5
2DC
330
2D8
100
AcDbEntity
  8
Layer 1
370
     0
100
AcDb2dPolyline
 66
     1
 10
0.0
 20
0.0
 30
0.0
  0
VERTEX
  5
2DD
330
2DC
100
AcDbEntity
  8
Layer 1
370
     0
100
AcDbVertex
100
AcDb2dVertex
 10
79.58010042619695
 20
-167.1278126707634
 30
0.0
  0
VERTEX
  5
2DE
330
2DC
100
AcDbEntity
  8
Layer 1
370
     0
100
AcDbVertex
100
AcDb2dVertex
 10
75.55201934785177
 20
-182.1583296508755
 30
0.0
  0
VERTEX
  5
2DF
330
2DC
100
AcDbEntity
  8
Layer 1
370
     0
100
AcDbVertex
100
AcDb2dVertex
 10
71.52395692509079
 20
-167.1278126714866
 30
0.0
  0
VERTEX
  5
2E0
330
2DC
100
AcDbEntity
  8
Layer 1
370
     0
100
AcDbVertex
100
AcDb2dVertex
 10
79.58010042619695
 20
-167.1278126707634
 30
0.0
  0
SEQEND
  5
2E2
330
2DC
100
AcDbEntity
  8
Layer 1
370
     0
  0
HATCH
  5
2E1
330
2D8
100
AcDbEntity
  8
Layer 1
 62
     7
420
 16777215
100
AcDbHatch
 10
0.0
 20
0.0
 30
0.0
210
0.0
220
0.0
230
1.0
  2
SOLID
 70
     1
 71
     0
 91
        1
 92
        1
 93
        3
 72
     1
 10
79.58010042619695
 20
-167.1278126707634
 11
75.55201934785177
 21
-182.1583296508755
 72
     1
 10
75.55201934785177
 20
-182.1583296508755
 11
71.52395692509079
 21
-167.1278126714866
 72
     1
 10
71.52395692509079
 20
-167.1278126714866
 11
79.58010042619695
 21
-167.1278126707634
 97
        0
 75
     2
 76
     1
 98
        0
  0
ENDBLK
  5
2DB
330
2D8
100
AcDbEntity
  8
0
100
AcDbBlockEnd
  0
BLOCK
  5
2E5
330
2E3
100
AcDbEntity
  8
0
100
AcDbBlockBegin
  2
block 18
 70
     0
 10
0.0
 20
0.0
 30
0.0
  3
block 18
  1

  0
POLYLINE
  5
2E7
330
2E3
100
AcDbEntity
  8
Layer 1
 62
     7
420
 16777215
370
    20
100
AcDb2dPolyline
 66
     1
 10
0.0
 20
0.0
 30
0.0
  0
VERTEX
  5
2E8
330
2E7
100
AcDbEntity
  8
Layer 1
 62
     7
420
 16777215
370
    20
100
AcDbVertex
100
AcDb2dVertex
 10
75.55203797078633
 20
211.3292813425481
 30
0.0
  0
VERTEX
  5
2E9
330
2E7
100
AcDbEntity
  8
Layer 1
 62
     7
420
 16777215
370
    20
100
AcDbVertex
100
AcDb2dVertex
 10
75.55203798500317
 20
82.87728606029087
 30
0.0
  0
SEQEND
  5
2EA
330
2E7
100
AcDbEntity
  8
Layer 1
 62
     7
420
 16777215
370
    20
  0
INSERT
  5
2EC
330
2E3
100
AcDbEntity
  8
Layer 1
100
AcDbBlockReference
  2
block 19
 10
0.0
 20
0.0
 30
0.0
  0
ENDBLK
  5
2E6
330
2E3
100
AcDbEntity
  8
0
100
AcDbBlockEnd
  0
BLOCK
  5
2ED
330
2EB
100
AcDbEntity
  8
0
100
AcDbBlockBegin
  2
block 19
 70
     0
 10
0.0
 20
0.0
 30
0.0
  3
block 19
  1

  0
POLYLINE
  5
2EF
330
2EB
100
AcDbEntity
  8
Layer 1
370
     0
100
AcDb2dPolyline
 66
     1
 10
0.0
 20
0.0
 30
0.0
  0
VERTEX
  5
2F0
330
2EF
100
AcDbEntity
  8
Layer 1
370
     0
100
AcDbVertex
100
AcDb2dVertex
 10
71.52397554962317
 20
208.5820355229647
 30
0.0
  0
VERTEX
  5
2F1
330
2EF
100
AcDbEntity
  8
Layer 1
370
     0
100
AcDbVertex
100
AcDb2dVertex
 10
75.55203796968196
 20
223.6124032368009
 30
0.0
  0
VERTEX
  5
2F2
330
2EF
100
AcDbEntity
  8
Layer 1
370
     0
100
AcDbVertex
100
AcDb2dVertex
 10
79.58011905072614
 20
208.5820355236885
 30
0.0
  0
VERTEX
  5
2F3
330
2EF
100
AcDbEntity
  8
Layer 1
370
     0
100
AcDbVertex
100
AcDb2dVertex
 10
71.52397554962317
 20
208.5820355229647
 30
0.0
  0
SEQEND
  5
2F5
330
2EF
100
AcDbEntity
  8
Layer 1
370
     0
  0
HATCH
  5
2F4
330
2EB
100
AcDbEntity
  8
Layer 1
 62
     7
420
 16777215
100
AcDbHatch
 10
0.0
 20
0.0
 30
0.0
210
0.0
220
0.0
230
1.0
  2
SOLID
 70
     1
 71
     0
 91
        1
 92
        1
 93
        3
 72
     1
 10
71.52397554962317
 20
208.5820355229647
 11
75.55203796968196
 21
223.6124032368009
 72
     1
 10
75.55203796968196
 20
223.6124032368009
 11
79.58011905072614
 21
208.5820355236885
 72
     1
 10
79.58011905072614
 20
208.5820355236885
 11
71.52397554962317
 21
208.5820355229647
 97
        0
 75
     2
 76
     1
 98
        0
  0
ENDBLK
  5
2EE
330
2EB
100
AcDbEntity
  8
0
100
AcDbBlockEnd
  0
BLOCK
  5
31C
330
31A
100
AcDbEntity
  8
0
100
AcDbBlockBegin
  2
block 20
 70
     0
 10
0.0
 20
0.0
 30
0.0
  3
block 20
  1

  0
POLYLINE
  5
31E
330
31A
100
AcDbEntity
  8
Layer 1
 62
     7
420
 16777215
370
    20
100
AcDb2dPolyline
 66
     1
 10
0.0
 20
0.0
 30
0.0
  0
VERTEX
  5
31F
330
31E
100
AcDbEntity
  8
Layer 1
 62
     7
420
 16777215
370
    20
100
AcDbVertex
100
AcDb2dVertex
 10
-746.7720204406357
 20
-309.9394820285847
 30
0.0
  0
VERTEX
  5
320
330
31E
100
AcDbEntity
  8
Layer 1
 62
     7
420
 16777215
370
    20
100
AcDbVertex
100
AcDb2dVertex
 10
-420.8228060200133
 20
-309.9394820285847
 30
0.0
  0
SEQEND
  5
321
330
31E
100
AcDbEntity
  8
Layer 1
 62
     7
420
 16777215
370
    20
  0
INSERT
  5
323
330
31A
100
AcDbEntity
  8
Layer 1
100
AcDbBlockReference
  2
block 21
 10
0.0
 20
0.0
 30
0.0
  0
ENDBLK
  5
31D
330
31A
100
AcDbEntity
  8
0
100
AcDbBlockEnd
  0
BLOCK
  5
324
330
322
100
AcDbEntity
  8
0
100
AcDbBlockBegin
  2
block 21
 70
     0
 10
0.0
 20
0.0
 30
0.0
  3
block 21
  1

  0
POLYLINE
  5
326
330
322
100
AcDbEntity
  8
Layer 1
370
     0
100
AcDb2dPolyline
 66
     1
 10
0.0
 20
0.0
 30
0.0
  0
VERTEX
  5
327
330
326
100
AcDbEntity
  8
Layer 1
370
     0
100
AcDbVertex
100
AcDb2dVertex
 10
-744.0248119379838
 20
-313.9675817665645
 30
0.0
  0
VERTEX
  5
328
330
326
100
AcDbEntity
  8
Layer 1
370
     0
100
AcDbVertex
100
AcDb2dVertex
 10
-759.0552542845963
 20
-309.9394820285847
 30
0.0
  0
VERTEX
  5
329
330
326
100
AcDbEntity
  8
Layer 1
370
     0
100
AcDbVertex
100
AcDb2dVertex
 10
-744.0248119379838
 20
-305.9114569237441
 30
0.0
  0
VERTEX
  5
32A
330
326
100
AcDbEntity
  8
Layer 1
370
     0
100
AcDbVertex
100
AcDb2dVertex
 10
-744.0248119379838
 20
-313.9675817665645
 30
0.0
  0
SEQEND
  5
32C
330
326
100
AcDbEntity
  8
Layer 1
370
     0
  0
HATCH
  5
32B
330
322
100
AcDbEntity
  8
Layer 1
 62
     7
420
 16777215
100
AcDbHatch
 10
0.0
 20
0.0
 30
0.0
210
0.0
220
0.0
230
1.0
  2
SOLID
 70
     1
 71
     0
 91
        1
 92
        1
 93
        3
 72
     1
 10
-744.0248119379838
 20
-313.9675817665645
 11
-759.0552542845963
 21
-309.9394820285847
 72
     1
 10
-759.0552542845963
 20
-309.9394820285847
 11
-744.0248119379838
 21
-305.9114569237441
 72
     1
 10
-744.0248119379838
 20
-305.9114569237441
 11
-744.0248119379838
 21
-313.9675817665645
 97
        0
 75
     2
 76
     1
 98
        0
  0
ENDBLK
  5
325
330
322
100
AcDbEntity
  8
0
100
AcDbBlockEnd
  0
BLOCK
  5
32F
330
32D
100
AcDbEntity
  8
0
100
AcDbBlockBegin
  2
block 22
 70
     0
 10
0.0
 20
0.0
 30
0.0
  3
block 22
  1

  0
POLYLINE
  5
331
330
32D
100
AcDbEntity
  8
Layer 1
 62
     7
420
 16777215
370
    20
100
AcDb2dPolyline
 66
     1
 10
0.0
 20
0.0
 30
0.0
  0
VERTEX
  5
332
330
331
100
AcDbEntity
  8
Layer 1
 62
     7
420
 16777215
370
    20
100
AcDbVertex
100
AcDb2dVertex
 10
-381.987866998361
 20
-264.9630737965864
 30
0.0
  0
VERTEX
  5
333
330
331
100
AcDbEntity
  8
Layer 1
 62
     7
420
 16777215
370
    20
100
AcDbVertex
100
AcDb2dVertex
 10
-249.8841150091399
 20
-264.9630737965864
 30
0.0
  0
SEQEND
  5
334
330
331
100
AcDbEntity
  8
Layer 1
 62
     7
420
 16777215
370
    20
  0
INSERT
  5
336
330
32D
100
AcDbEntity
  8
Layer 1
100
AcDbBlockReference
  2
block 23
 10
0.0
 20
0.0
 30
0.0
  0
ENDBLK
  5
330
330
32D
100
AcDbEntity
  8
0
100
AcDbBlockEnd
  0
BLOCK
  5
337
330
335
100
AcDbEntity
  8
0
100
AcDbBlockBegin
  2
block 23
 70
     0
 10
0.0
 20
0.0
 30
0.0
  3
block 23
  1

  0
POLYLINE
  5
339
330
335
100
AcDbEntity
  8
Layer 1
370
     0
100
AcDb2dPolyline
 66
     1
 10
0.0
 20
0.0
 30
0.0
  0
VERTEX
  5
33A
330
339
100
AcDbEntity
  8
Layer 1
370
     0
100
AcDbVertex
100
AcDb2dVertex
 10
-379.2406584957088
 20
-268.9911735345656
 30
0.0
  0
VERTEX
  5
33B
330
339
100
AcDbEntity
  8
Layer 1
370
     0
100
AcDbVertex
100
AcDb2dVertex
 10
-394.2711008423217
 20
-264.9630737965864
 30
0.0
  0
VERTEX
  5
33C
330
339
100
AcDbEntity
  8
Layer 1
370
     0
100
AcDbVertex
100
AcDb2dVertex
 10
-379.2406584957088
 20
-260.9350486917458
 30
0.0
  0
VERTEX
  5
33D
330
339
100
AcDbEntity
  8
Layer 1
370
     0
100
AcDbVertex
100
AcDb2dVertex
 10
-379.2406584957088
 20
-268.9911735345656
 30
0.0
  0
SEQEND
  5
33F
330
339
100
AcDbEntity
  8
Layer 1
370
     0
  0
HATCH
  5
33E
330
335
100
AcDbEntity
  8
Layer 1
 62
     7
420
 16777215
100
AcDbHatch
 10
0.0
 20
0.0
 30
0.0
210
0.0
220
0.0
230
1.0
  2
SOLID
 70
     1
 71
     0
 91
        1
 92
        1
 93
        3
 72
     1
 10
-379.2406584957088
 20
-268.9911735345656
 11
-394.2711008423217
 21
-264.9630737965864
 72
     1
 10
-394.2711008423217
 20
-264.9630737965864
 11
-379.2406584957088
 21
-260.9350486917458
 72
     1
 10
-379.2406584957088
 20
-260.9350486917458
 11
-379.2406584957088
 21
-268.9911735345656
 97
        0
 75
     2
 76
     1
 98
        0
  0
ENDBLK
  5
338
330
335
100
AcDbEntity
  8
0
100
AcDbBlockEnd
  0
BLOCK
  5
342
330
340
100
AcDbEntity
  8
0
100
AcDbBlockBegin
  2
block 24
 70
     0
 10
0.0
 20
0.0
 30
0.0
  3
block 24
  1

  0
POLYLINE
  5
344
330
340
100
AcDbEntity
  8
Layer 1
 62
     7
420
 16777215
370
    20
100
AcDb2dPolyline
 66
     1
 10
0.0
 20
0.0
 30
0.0
  0
VERTEX
  5
345
330
344
100
AcDbEntity
  8
Layer 1
 62
     7
420
 16777215
370
    20
100
AcDbVertex
100
AcDb2dVertex
 10
-52.05687749820592
 20
-264.963083125729
 30
0.0
  0
VERTEX
  5
346
330
344
100
AcDbEntity
  8
Layer 1
 62
     7
420
 16777215
370
    20
100
AcDbVertex
100
AcDb2dVertex
 10
-184.1605921708588
 20
-264.963083125729
 30
0.0
  0
SEQEND
  5
347
330
344
100
AcDbEntity
  8
Layer 1
 62
     7
420
 16777215
370
    20
  0
INSERT
  5
349
330
340
100
AcDbEntity
  8
Layer 1
100
AcDbBlockReference
  2
block 25
 10
0.0
 20
0.0
 30
0.0
  0
ENDBLK
  5
343
330
340
100
AcDbEntity
  8
0
100
AcDbBlockEnd
  0
BLOCK
  5
34A
330
348
100
AcDbEntity
  8
0
100
AcDbBlockBegin
  2
block 25
 70
     0
 10
0.0
 20
0.0
 30
0.0
  3
block 25
  1

  0
POLYLINE
  5
34C
330
348
100
AcDbEntity
  8
Layer 1
370
     0
100
AcDb2dPolyline
 66
     1
 10
0.0
 20
0.0
 30
0.0
  0
VERTEX
  5
34D
330
34C
100
AcDbEntity
  8
Layer 1
370
     0
100
AcDbVertex
100
AcDb2dVertex
 10
-54.80404868428985
 20
-260.9350580208877
 30
0.0
  0
VERTEX
  5
34E
330
34C
100
AcDbEntity
  8
Layer 1
370
     0
100
AcDbVertex
100
AcDb2dVertex
 10
-39.77360633767666
 20
-264.963083125729
 30
0.0
  0
VERTEX
  5
34F
330
34C
100
AcDbEntity
  8
Layer 1
370
     0
100
AcDbVertex
100
AcDb2dVertex
 10
-54.80404868428985
 20
-268.9911828637082
 30
0.0
  0
VERTEX
  5
350
330
34C
100
AcDbEntity
  8
Layer 1
370
     0
100
AcDbVertex
100
AcDb2dVertex
 10
-54.80404868428985
 20
-260.9350580208877
 30
0.0
  0
SEQEND
  5
352
330
34C
100
AcDbEntity
  8
Layer 1
370
     0
  0
HATCH
  5
351
330
348
100
AcDbEntity
  8
Layer 1
 62
     7
420
 16777215
100
AcDbHatch
 10
0.0
 20
0.0
 30
0.0
210
0.0
220
0.0
230
1.0
  2
SOLID
 70
     1
 71
     0
 91
        1
 92
        1
 93
        3
 72
     1
 10
-54.80404868428985
 20
-260.9350580208877
 11
-39.77360633767666
 21
-264.963083125729
 72
     1
 10
-39.77360633767666
 20
-264.963083125729
 11
-54.80404868428985
 21
-268.9911828637082
 72
     1
 10
-54.80404868428985
 20
-268.9911828637082
 11
-54.80404868428985
 21
-260.9350580208877
 97
        0
 75
     2
 76
     1
 98
        0
  0
ENDBLK
  5
34B
330
348
100
AcDbEntity
  8
0
100
AcDbBlockEnd
  0
BLOCK
  5
355
330
353
100
AcDbEntity
  8
0
100
AcDbBlockBegin
  2
block 26
 70
     0
 10
0.0
 20
0.0
 30
0.0
  3
block 26
  1

  0
POLYLINE
  5
357
330
353
100
AcDbEntity
  8
Layer 1
 62
     7
420
 16777215
370
    20
100
AcDb2dPolyline
 66
     1
 10
0.0
 20
0.0
 30
0.0
  0
VERTEX
  5
358
330
357
100
AcDbEntity
  8
Layer 1
 62
     7
420
 16777215
370
    20
100
AcDbVertex
100
AcDb2dVertex
 10
-22.76021592694357
 20
-310.1178738873026
 30
0.0
  0
VERTEX
  5
359
330
357
100
AcDbEntity
  8
Layer 1
 62
     7
420
 16777215
370
    20
100
AcDbVertex
100
AcDb2dVertex
 10
-320.1572256342949
 20
-310.1178738873026
 30
0.0
  0
SEQEND
  5
35A
330
357
100
AcDbEntity
  8
Layer 1
 62
     7
420
 16777215
370
    20
  0
INSERT
  5
35C
330
353
100
AcDbEntity
  8
Layer 1
100
AcDbBlockReference
  2
block 27
 10
0.0
 20
0.0
 30
0.0
  0
ENDBLK
  5
356
330
353
100
AcDbEntity
  8
0
100
AcDbBlockEnd
  0
BLOCK
  5
35D
330
35B
100
AcDbEntity
  8
0
100
AcDbBlockBegin
  2
block 27
 70
     0
 10
0.0
 20
0.0
 30
0.0
  3
block 27
  1

  0
POLYLINE
  5
35F
330
35B
100
AcDbEntity
  8
Layer 1
370
     0
100
AcDb2dPolyline
 66
     1
 10
0.0
 20
0.0
 30
0.0
  0
VERTEX
  5
360
330
35F
100
AcDbEntity
  8
Layer 1
370
     0
100
AcDbVertex
100
AcDb2dVertex
 10
-25.50738711302654
 20
-306.0898487824613
 30
0.0
  0
VERTEX
  5
361
330
35F
100
AcDbEntity
  8
Layer 1
370
     0
100
AcDbVertex
100
AcDb2dVertex
 10
-10.47694476641431
 20
-310.1178738873026
 30
0.0
  0
VERTEX
  5
362
330
35F
100
AcDbEntity
  8
Layer 1
370
     0
100
AcDbVertex
100
AcDb2dVertex
 10
-25.50738711302654
 20
-314.1459736252837
 30
0.0
  0
VERTEX
  5
363
330
35F
100
AcDbEntity
  8
Layer 1
370
     0
100
AcDbVertex
100
AcDb2dVertex
 10
-25.50738711302654
 20
-306.0898487824613
 30
0.0
  0
SEQEND
  5
365
330
35F
100
AcDbEntity
  8
Layer 1
370
     0
  0
HATCH
  5
364
330
35B
100
AcDbEntity
  8
Layer 1
 62
     7
420
 16777215
100
AcDbHatch
 10
0.0
 20
0.0
 30
0.0
210
0.0
220
0.0
230
1.0
  2
SOLID
 70
     1
 71
     0
 91
        1
 92
        1
 93
        3
 72
     1
 10
-25.50738711302654
 20
-306.0898487824613
 11
-10.47694476641431
 21
-310.1178738873026
 72
     1
 10
-10.47694476641431
 20
-310.1178738873026
 11
-25.50738711302654
 21
-314.1459736252837
 72
     1
 10
-25.50738711302654
 20
-314.1459736252837
 11
-25.50738711302654
 21
-306.0898487824613
 97
        0
 75
     2
 76
     1
 98
        0
  0
ENDBLK
  5
35E
330
35B
100
AcDbEntity
  8
0
100
AcDbBlockEnd
  0
BLOCK
  5
368
330
366
100
AcDbEntity
  8
0
100
AcDbBlockBegin
  2
block 28
 70
     0
 10
0.0
 20
0.0
 30
0.0
  3
block 28
  1

  0
POLYLINE
  5
36A
330
366
100
AcDbEntity
  8
Layer 1
 62
     7
420
 16777215
370
    20
100
AcDb2dPolyline
 66
     1
 10
0.0
 20
0.0
 30
0.0
  0
VERTEX
  5
36B
330
36A
100
AcDbEntity
  8
Layer 1
 62
     7
420
 16777215
370
    20
100
AcDbVertex
100
AcDb2dVertex
 10
-713.17650618759
 20
-264.8571320568316
 30
0.0
  0
VERTEX
  5
36C
330
36A
100
AcDbEntity
  8
Layer 1
 62
     7
420
 16777215
370
    20
100
AcDbVertex
100
AcDb2dVertex
 10
-602.9272199712883
 20
-264.8571320568316
 30
0.0
  0
SEQEND
  5
36D
330
36A
100
AcDbEntity
  8
Layer 1
 62
     7
420
 16777215
370
    20
  0
INSERT
  5
36F
330
366
100
AcDbEntity
  8
Layer 1
100
AcDbBlockReference
  2
block 29
 10
0.0
 20
0.0
 30
0.0
  0
ENDBLK
  5
369
330
366
100
AcDbEntity
  8
0
100
AcDbBlockEnd
  0
BLOCK
  5
370
330
36E
100
AcDbEntity
  8
0
100
AcDbBlockBegin
  2
block 29
 70
     0
 10
0.0
 20
0.0
 30
0.0
  3
block 29
  1

  0
POLYLINE
  5
372
330
36E
100
AcDbEntity
  8
Layer 1
370
     0
100
AcDb2dPolyline
 66
     1
 10
0.0
 20
0.0
 30
0.0
  0
VERTEX
  5
373
330
372
100
AcDbEntity
  8
Layer 1
370
     0
100
AcDbVertex
100
AcDb2dVertex
 10
-710.4292603683692
 20
-268.8852317948108
 30
0.0
  0
VERTEX
  5
374
330
372
100
AcDbEntity
  8
Layer 1
370
     0
100
AcDbVertex
100
AcDb2dVertex
 10
-725.4597773481194
 20
-264.8571320568316
 30
0.0
  0
VERTEX
  5
375
330
372
100
AcDbEntity
  8
Layer 1
370
     0
100
AcDbVertex
100
AcDb2dVertex
 10
-710.4292603683692
 20
-260.8291069519904
 30
0.0
  0
VERTEX
  5
376
330
372
100
AcDbEntity
  8
Layer 1
370
     0
100
AcDbVertex
100
AcDb2dVertex
 10
-710.4292603683692
 20
-268.8852317948108
 30
0.0
  0
SEQEND
  5
378
330
372
100
AcDbEntity
  8
Layer 1
370
     0
  0
HATCH
  5
377
330
36E
100
AcDbEntity
  8
Layer 1
 62
     7
420
 16777215
100
AcDbHatch
 10
0.0
 20
0.0
 30
0.0
210
0.0
220
0.0
230
1.0
  2
SOLID
 70
     1
 71
     0
 91
        1
 92
        1
 93
        3
 72
     1
 10
-710.4292603683692
 20
-268.8852317948108
 11
-725.4597773481194
 21
-264.8571320568316
 72
     1
 10
-725.4597773481194
 20
-264.8571320568316
 11
-710.4292603683692
 21
-260.8291069519904
 72
     1
 10
-710.4292603683692
 20
-260.8291069519904
 11
-710.4292603683692
 21
-268.8852317948108
 97
        0
 75
     2
 76
     1
 98
        0
  0
ENDBLK
  5
371
330
36E
100
AcDbEntity
  8
0
100
AcDbBlockEnd
  0
BLOCK
  5
37B
330
379
100
AcDbEntity
  8
0
100
AcDbBlockBegin
  2
block 30
 70
     0
 10
0.0
 20
0.0
 30
0.0
  3
block 30
  1

  0
POLYLINE
  5
37D
330
379
100
AcDbEntity
  8
Layer 1
 62
     7
420
 16777215
370
    20
100
AcDb2dPolyline
 66
     1
 10
0.0
 20
0.0
 30
0.0
  0
VERTEX
  5
37E
330
37D
100
AcDbEntity
  8
Layer 1
 62
     7
420
 16777215
370
    20
100
AcDbVertex
100
AcDb2dVertex
 10
-439.0557778059471
 20
-264.6934420329734
 30
0.0
  0
VERTEX
  5
37F
330
37D
100
AcDbEntity
  8
Layer 1
 62
     7
420
 16777215
370
    20
100
AcDbVertex
100
AcDb2dVertex
 10
-545.0720402144829
 20
-264.74414857024
 30
0.0
  0
SEQEND
  5
380
330
37D
100
AcDbEntity
  8
Layer 1
 62
     7
420
 16777215
370
    20
  0
INSERT
  5
382
330
379
100
AcDbEntity
  8
Layer 1
100
AcDbBlockReference
  2
block 31
 10
0.0
 20
0.0
 30
0.0
  0
ENDBLK
  5
37C
330
379
100
AcDbEntity
  8
0
100
AcDbBlockEnd
  0
BLOCK
  5
383
330
381
100
AcDbEntity
  8
0
100
AcDbBlockBegin
  2
block 31
 70
     0
 10
0.0
 20
0.0
 30
0.0
  3
block 31
  1

  0
POLYLINE
  5
385
330
381
100
AcDbEntity
  8
Layer 1
370
     0
100
AcDb2dPolyline
 66
     1
 10
0.0
 20
0.0
 30
0.0
  0
VERTEX
  5
386
330
385
100
AcDbEntity
  8
Layer 1
370
     0
100
AcDbVertex
100
AcDb2dVertex
 10
-441.7953232429505
 20
-260.6601757840045
 30
0.0
  0
VERTEX
  5
387
330
385
100
AcDbEntity
  8
Layer 1
370
     0
100
AcDbVertex
100
AcDb2dVertex
 10
-426.7726036944645
 20
-264.7169085516004
 30
0.0
  0
VERTEX
  5
388
330
385
100
AcDbEntity
  8
Layer 1
370
     0
100
AcDbVertex
100
AcDb2dVertex
 10
-441.8107141229438
 20
-268.7162859250039
 30
0.0
  0
VERTEX
  5
389
330
385
100
AcDbEntity
  8
Layer 1
370
     0
100
AcDbVertex
100
AcDb2dVertex
 10
-441.7953232429505
 20
-260.6601757840045
 30
0.0
  0
SEQEND
  5
38B
330
385
100
AcDbEntity
  8
Layer 1
370
     0
  0
HATCH
  5
38A
330
381
100
AcDbEntity
  8
Layer 1
 62
     7
420
 16777215
100
AcDbHatch
 10
0.0
 20
0.0
 30
0.0
210
0.0
220
0.0
230
1.0
  2
SOLID
 70
     1
 71
     0
 91
        1
 92
        1
 93
        3
 72
     1
 10
-441.7953232429505
 20
-260.6601757840045
 11
-426.7726036944645
 21
-264.7169085516004
 72
     1
 10
-426.7726036944645
 20
-264.7169085516004
 11
-441.8107141229438
 21
-268.7162859250039
 72
     1
 10
-441.8107141229438
 20
-268.7162859250039
 11
-441.7953232429505
 21
-260.6601757840045
 97
        0
 75
     2
 76
     1
 98
        0
  0
ENDBLK
  5
384
330
381
100
AcDbEntity
  8
0
100
AcDbBlockEnd
  0
BLOCK
  5
397
330
395
100
AcDbEntity
  8
0
100
AcDbBlockBegin
  2
block 32
 70
     0
 10
0.0
 20
0.0
 30
0.0
  3
block 32
  1

  0
POLYLINE
  5
399
330
395
100
AcDbEntity
  8
Layer 1
 62
     7
420
 16777215
370
    20
100
AcDb2dPolyline
 66
     1
 10
0.0
 20
0.0
 30
0.0
  0
VERTEX
  5
39A
330
399
100
AcDbEntity
  8
Layer 1
 62
     7
420
 16777215
370
    20
100
AcDbVertex
100
AcDb2dVertex
 10
-864.5050405541235
 20
-508.6434553950687
 30
0.0
  0
VERTEX
  5
39B
330
399
100
AcDbEntity
  8
Layer 1
 62
     7
420
 16777215
370
    20
100
AcDbVertex
100
AcDb2dVertex
 10
-864.5050405541235
 20
-563.1215061051494
 30
0.0
  0
SEQEND
  5
39C
330
399
100
AcDbEntity
  8
Layer 1
 62
     7
420
 16777215
370
    20
  0
INSERT
  5
39E
330
395
100
AcDbEntity
  8
Layer 1
100
AcDbBlockReference
  2
block 33
 10
0.0
 20
0.0
 30
0.0
  0
ENDBLK
  5
398
330
395
100
AcDbEntity
  8
0
100
AcDbBlockEnd
  0
BLOCK
  5
39F
330
39D
100
AcDbEntity
  8
0
100
AcDbBlockBegin
  2
block 33
 70
     0
 10
0.0
 20
0.0
 30
0.0
  3
block 33
  1

  0
POLYLINE
  5
3A1
330
39D
100
AcDbEntity
  8
Layer 1
370
     0
100
AcDb2dPolyline
 66
     1
 10
0.0
 20
0.0
 30
0.0
  0
VERTEX
  5
3A2
330
3A1
100
AcDbEntity
  8
Layer 1
370
     0
100
AcDbVertex
100
AcDb2dVertex
 10
-868.5331216338163
 20
-511.3907012142896
 30
0.0
  0
VERTEX
  5
3A3
330
3A1
100
AcDbEntity
  8
Layer 1
370
     0
100
AcDbVertex
100
AcDb2dVertex
 10
-864.5050405541235
 20
-496.3602588676774
 30
0.0
  0
VERTEX
  5
3A4
330
3A1
100
AcDbEntity
  8
Layer 1
370
     0
100
AcDbVertex
100
AcDb2dVertex
 10
-860.4769781327134
 20
-511.3907012142896
 30
0.0
  0
VERTEX
  5
3A5
330
3A1
100
AcDbEntity
  8
Layer 1
370
     0
100
AcDbVertex
100
AcDb2dVertex
 10
-868.5331216338163
 20
-511.3907012142896
 30
0.0
  0
SEQEND
  5
3A7
330
3A1
100
AcDbEntity
  8
Layer 1
370
     0
  0
HATCH
  5
3A6
330
39D
100
AcDbEntity
  8
Layer 1
 62
     7
420
 16777215
100
AcDbHatch
 10
0.0
 20
0.0
 30
0.0
210
0.0
220
0.0
230
1.0
  2
SOLID
 70
     1
 71
     0
 91
        1
 92
        1
 93
        3
 72
     1
 10
-868.5331216338163
 20
-511.3907012142896
 11
-864.5050405541235
 21
-496.3602588676774
 72
     1
 10
-864.5050405541235
 20
-496.3602588676774
 11
-860.4769781327134
 21
-511.3907012142896
 72
     1
 10
-860.4769781327134
 20
-511.3907012142896
 11
-868.5331216338163
 21
-511.3907012142896
 97
        0
 75
     2
 76
     1
 98
        0
  0
ENDBLK
  5
3A0
330
39D
100
AcDbEntity
  8
0
100
AcDbBlockEnd
  0
BLOCK
  5
3AA
330
3A8
100
AcDbEntity
  8
0
100
AcDbBlockBegin
  2
block 34
 70
     0
 10
0.0
 20
0.0
 30
0.0
  3
block 34
  1

  0
POLYLINE
  5
3AC
330
3A8
100
AcDbEntity
  8
Layer 1
 62
     7
420
 16777215
370
    20
100
AcDb2dPolyline
 66
     1
 10
0.0
 20
0.0
 30
0.0
  0
VERTEX
  5
3AD
330
3AC
100
AcDbEntity
  8
Layer 1
 62
     7
420
 16777215
370
    20
100
AcDbVertex
100
AcDb2dVertex
 10
-864.5050405541235
 20
-678.6598067116446
 30
0.0
  0
VERTEX
  5
3AE
330
3AC
100
AcDbEntity
  8
Layer 1
 62
     7
420
 16777215
370
    20
100
AcDbVertex
100
AcDb2dVertex
 10
-864.5050405541235
 20
-629.443728310791
 30
0.0
  0
SEQEND
  5
3AF
330
3AC
100
AcDbEntity
  8
Layer 1
 62
     7
420
 16777215
370
    20
  0
INSERT
  5
3B1
330
3A8
100
AcDbEntity
  8
Layer 1
100
AcDbBlockReference
  2
block 35
 10
0.0
 20
0.0
 30
0.0
  0
ENDBLK
  5
3AB
330
3A8
100
AcDbEntity
  8
0
100
AcDbBlockEnd
  0
BLOCK
  5
3B2
330
3B0
100
AcDbEntity
  8
0
100
AcDbBlockBegin
  2
block 35
 70
     0
 10
0.0
 20
0.0
 30
0.0
  3
block 35
  1

  0
POLYLINE
  5
3B4
330
3B0
100
AcDbEntity
  8
Layer 1
370
     0
100
AcDb2dPolyline
 66
     1
 10
0.0
 20
0.0
 30
0.0
  0
VERTEX
  5
3B5
330
3B4
100
AcDbEntity
  8
Layer 1
370
     0
100
AcDbVertex
100
AcDb2dVertex
 10
-860.4769781327134
 20
-675.912635525561
 30
0.0
  0
VERTEX
  5
3B6
330
3B4
100
AcDbEntity
  8
Layer 1
370
     0
100
AcDbVertex
100
AcDb2dVertex
 10
-864.5050405541235
 20
-690.9430778721738
 30
0.0
  0
VERTEX
  5
3B7
330
3B4
100
AcDbEntity
  8
Layer 1
370
     0
100
AcDbVertex
100
AcDb2dVertex
 10
-868.5331216338163
 20
-675.912635525561
 30
0.0
  0
VERTEX
  5
3B8
330
3B4
100
AcDbEntity
  8
Layer 1
370
     0
100
AcDbVertex
100
AcDb2dVertex
 10
-860.4769781327134
 20
-675.912635525561
 30
0.0
  0
SEQEND
  5
3BA
330
3B4
100
AcDbEntity
  8
Layer 1
370
     0
  0
HATCH
  5
3B9
330
3B0
100
AcDbEntity
  8
Layer 1
 62
     7
420
 16777215
100
AcDbHatch
 10
0.0
 20
0.0
 30
0.0
210
0.0
220
0.0
230
1.0
  2
SOLID
 70
     1
 71
     0
 91
        1
 92
        1
 93
        3
 72
     1
 10
-860.4769781327134
 20
-675.912635525561
 11
-864.5050405541235
 21
-690.9430778721738
 72
     1
 10
-864.5050405541235
 20
-690.9430778721738
 11
-868.5331216338163
 21
-675.912635525561
 72
     1
 10
-868.5331216338163
 20
-675.912635525561
 11
-860.4769781327134
 21
-675.912635525561
 97
        0
 75
     2
 76
     1
 98
        0
  0
ENDBLK
  5
3B3
330
3B0
100
AcDbEntity
  8
0
100
AcDbBlockEnd
  0
BLOCK
  5
3BD
330
3BB
100
AcDbEntity
  8
0
100
AcDbBlockBegin
  2
block 36
 70
     0
 10
0.0
 20
0.0
 30
0.0
  3
block 36
  1

  0
MTEXT
  5
3BF
330
3BB
100
AcDbEntity
  8
Layer 1
 62
     7
420
 16777215
100
AcDbMText
 10
452.3850483081277
 20
-909.4866907177238
 30
0.0
 40
9.59555562313517
 41
0.0
 46
0.0
 71
     7
 72
     1
  1
\fFrutiger LT Std 55 Roman|b0|i0|c0|p34;\W1;CAD Drawing: AP1416
 73
     1
 44
1.0
  0
ENDBLK
  5
3BE
330
3BB
100
AcDbEntity
  8
0
100
AcDbBlockEnd
  0
BLOCK
  5
3C2
330
3C0
100
AcDbEntity
  8
0
100
AcDbBlockBegin
  2
block 37
 70
     0
 10
0.0
 20
0.0
 30
0.0
  3
block 37
  1

  0
SPLINE
  5
3C4
330
3C0
100
AcDbEntity
  8
Layer 1
370
     0
100
AcDbSpline
210
0.0
220
0.0
230
1.0
 70
    11
 71
     3
 72
    38
 73
    34
 74
     0
 42
0.0000000001
 43
0.0000000001
 12
1.0
 22
0.0
 32
0.0
 13
1.0
 23
0.0
 33
0.0
 40
0.0
 40
0.0
 40
0.0
 40
0.0
 40
1.0
 40
1.0
 40
1.0
 40
2.0
 40
2.0
 40
2.0
 40
3.0
 40
3.0
 40
3.0
 40
4.0
 40
4.0
 40
4.0
 40
5.0
 40
5.0
 40
5.0
 40
6.0
 40
6.0
 40
6.0
 40
7.0
 40
7.0
 40
7.0
 40
8.0
 40
8.0
 40
8.0
 40
9.0
 40
9.0
 40
9.0
 40
10.0
 40
10.0
 40
10.0
 40
11.0
 40
11.0
 40
11.0
 40
11.0
 10
545.5889427562986
 20
-880.1347193584907
 30
0.0
 10
545.5889427562986
 20
-880.1347193584907
 30
0.0
 10
545.5579368969313
 20
-880.0000161250174
 30
0.0
 10
545.5579368969313
 20
-880.0000161250174
 30
0.0
 10
545.9513668013469
 20
-879.2610431434313
 30
0.0
 10
546.587331427924
 20
-878.9210122190372
 30
0.0
 10
547.3934837714725
 20
-879.3833440331576
 30
0.0
 10
548.1004173650457
 20
-879.7426674922692
 30
0.0
 10
549.275883944613
 20
-878.9547741547925
 30
0.0
 10
550.0158904548447
 20
-878.7776962468507
 30
0.0
 10
552.7023759142425
 20
-877.7669052314784
 30
0.0
 10
555.5294212694384
 20
-877.0699624148124
 30
0.0
 10
558.2482906263976
 20
-876.1043021502968
 30
0.0
 10
558.2482906263976
 20
-876.1043021502968
 30
0.0
 10
558.4129661905926
 20
-876.057793361246
 30
0.0
 10
558.6079585950578
 20
-876.0571043421489
 30
0.0
 10
559.3520992198717
 20
-876.0515921893725
 30
0.0
 10
559.8833329436973
 20
-876.7285534522241
 30
0.0
 10
559.2342769542762
 20
-877.3562498496366
 30
0.0
 10
558.543190799935
 20
-878.023909354678
 30
0.0
 10
556.6111812518069
 20
-878.6922578788165
 30
0.0
 10
555.7189015211272
 20
-879.1222057953757
 30
0.0
 10
555.7189015211272
 20
-879.1222057953757
 30
0.0
 10
549.3564991789679
 20
-881.5658120230634
 30
0.0
 10
548.807350958619
 20
-881.8128253693558
 30
0.0
 10
548.7005529985763
 20
-881.8600231775038
 30
0.0
 10
548.6109805159598
 20
-881.9165227434619
 30
0.0
 10
548.5248531288286
 20
-881.9799125003905
 30
0.0
 10
548.5248531288286
 20
-881.9799125003905
 30
0.0
 10
548.256135680979
 20
-882.1835176435687
 30
0.0
 10
548.256135680979
 20
-882.1835176435687
 30
0.0
 10
546.9972977906688
 20
-883.0892332466409
 30
0.0
 10
545.8059837718694
 20
-881.1134709858501
 30
0.0
 10
545.5889427562986
 20
-880.1347193584907
 30
0.0
  0
ENDBLK
  5
3C3
330
3C0
100
AcDbEntity
  8
0
100
AcDbBlockEnd
  0
BLOCK
  5
3C7
330
3C5
100
AcDbEntity
  8
0
100
AcDbBlockBegin
  2
block 38
 70
     0
 10
0.0
 20
0.0
 30
0.0
  3
block 38
  1

  0
SPLINE
  5
3C9
330
3C5
100
AcDbEntity
  8
Layer 1
370
     0
100
AcDbSpline
210
0.0
220
0.0
230
1.0
 70
    11
 71
     3
 72
    41
 73
    37
 74
     0
 42
0.0000000001
 43
0.0000000001
 12
1.0
 22
0.0
 32
0.0
 13
1.0
 23
0.0
 33
0.0
 40
0.0
 40
0.0
 40
0.0
 40
0.0
 40
1.0
 40
1.0
 40
1.0
 40
2.0
 40
2.0
 40
2.0
 40
3.0
 40
3.0
 40
3.0
 40
4.0
 40
4.0
 40
4.0
 40
5.0
 40
5.0
 40
5.0
 40
6.0
 40
6.0
 40
6.0
 40
7.0
 40
7.0
 40
7.0
 40
8.0
 40
8.0
 40
8.0
 40
9.0
 40
9.0
 40
9.0
 40
10.0
 40
10.0
 40
10.0
 40
11.0
 40
11.0
 40
11.0
 40
12.0
 40
12.0
 40
12.0
 40
12.0
 10
545.5889427562986
 20
-880.1347193584907
 30
0.0
 10
545.5889427562986
 20
-880.1347193584907
 30
0.0
 10
545.5579368969281
 20
-880.0000161250174
 30
0.0
 10
545.5579368969281
 20
-880.0000161250174
 30
0.0
 10
545.9513668013469
 20
-879.2610431434313
 30
0.0
 10
546.587331427924
 20
-878.9210122190372
 30
0.0
 10
547.3934837714725
 20
-879.3833440331576
 30
0.0
 10
548.1004173650457
 20
-879.7426674922692
 30
0.0
 10
549.275883944613
 20
-878.9547741547925
 30
0.0
 10
550.0158904548447
 20
-878.7776962468507
 30
0.0
 10
552.7023759142393
 20
-877.7669052314784
 30
0.0
 10
555.5294212694353
 20
-877.0699624148124
 30
0.0
 10
558.2482906263976
 20
-876.1043021502968
 30
0.0
 10
558.2482906263976
 20
-876.1043021502968
 30
0.0
 10
558.4129661905926
 20
-876.057793361246
 30
0.0
 10
558.6079585950578
 20
-876.0571043421489
 30
0.0
 10
559.3520992198717
 20
-876.0515921893725
 30
0.0
 10
559.8833329436973
 20
-876.7285534522241
 30
0.0
 10
559.2342769542762
 20
-877.3562498496366
 30
0.0
 10
558.543190799935
 20
-878.023909354678
 30
0.0
 10
556.6111812518069
 20
-878.6922578788165
 30
0.0
 10
555.718901521124
 20
-879.1222057953757
 30
0.0
 10
555.718901521124
 20
-879.1222057953757
 30
0.0
 10
549.3564991789647
 20
-881.5658120230634
 30
0.0
 10
548.807350958619
 20
-881.8128253693558
 30
0.0
 10
548.7005529985763
 20
-881.8600231775038
 30
0.0
 10
548.6109805159598
 20
-881.9165227434619
 30
0.0
 10
548.5248531288286
 20
-881.9799125003905
 30
0.0
 10
548.5248531288286
 20
-881.9799125003905
 30
0.0
 10
548.256135680979
 20
-882.1835176435687
 30
0.0
 10
548.256135680979
 20
-882.1835176435687
 30
0.0
 10
546.9972977906656
 20
-883.0892332466409
 30
0.0
 10
545.5889427562986
 20
-880.1347193584907
 30
0.0
 10
545.5889427562986
 20
-880.1347193584907
 30
0.0
 10
545.5889427562986
 20
-880.1347193584907
 30
0.0
 10
545.8059837718694
 20
-881.1134709858501
 30
0.0
 10
545.5889427562986
 20
-880.1347193584907
 30
0.0
  0
HATCH
  5
3CA
330
3C5
100
AcDbEntity
  8
Layer 1
 62
   254
420
 14079702
100
AcDbHatch
 10
0.0
 20
0.0
 30
0.0
210
0.0
220
0.0
230
1.0
  2
SOLID
 70
     1
 71
     0
 91
        1
 92
        1
 93
        1
 72
     4
 94
        3
 73
     0
 74
     1
 95
       41
 96
       37
 40
0.0
 40
0.0
 40
0.0
 40
0.0
 40
1.0
 40
1.0
 40
1.0
 40
2.0
 40
2.0
 40
2.0
 40
3.0
 40
3.0
 40
3.0
 40
4.0
 40
4.0
 40
4.0
 40
5.0
 40
5.0
 40
5.0
 40
6.0
 40
6.0
 40
6.0
 40
7.0
 40
7.0
 40
7.0
 40
8.0
 40
8.0
 40
8.0
 40
9.0
 40
9.0
 40
9.0
 40
10.0
 40
10.0
 40
10.0
 40
11.0
 40
11.0
 40
11.0
 40
12.0
 40
12.0
 40
12.0
 40
12.0
 10
545.5889427562986
 20
-880.1347193584907
 10
545.5889427562986
 20
-880.1347193584907
 10
545.5579368969281
 20
-880.0000161250174
 10
545.5579368969281
 20
-880.0000161250174
 10
545.9513668013469
 20
-879.2610431434313
 10
546.587331427924
 20
-878.9210122190372
 10
547.3934837714725
 20
-879.3833440331576
 10
548.1004173650457
 20
-879.7426674922692
 10
549.275883944613
 20
-878.9547741547925
 10
550.0158904548447
 20
-878.7776962468507
 10
552.7023759142393
 20
-877.7669052314784
 10
555.5294212694353
 20
-877.0699624148124
 10
558.2482906263976
 20
-876.1043021502968
 10
558.2482906263976
 20
-876.1043021502968
 10
558.4129661905926
 20
-876.057793361246
 10
558.6079585950578
 20
-876.0571043421489
 10
559.3520992198717
 20
-876.0515921893725
 10
559.8833329436973
 20
-876.7285534522241
 10
559.2342769542762
 20
-877.3562498496366
 10
558.543190799935
 20
-878.023909354678
 10
556.6111812518069
 20
-878.6922578788165
 10
555.718901521124
 20
-879.1222057953757
 10
555.718901521124
 20
-879.1222057953757
 10
549.3564991789647
 20
-881.5658120230634
 10
548.807350958619
 20
-881.8128253693558
 10
548.7005529985763
 20
-881.8600231775038
 10
548.6109805159598
 20
-881.9165227434619
 10
548.5248531288286
 20
-881.9799125003905
 10
548.5248531288286
 20
-881.9799125003905
 10
548.256135680979
 20
-882.1835176435687
 10
548.256135680979
 20
-882.1835176435687
 10
546.9972977906656
 20
-883.0892332466409
 10
545.5889427562986
 20
-880.1347193584907
 10
545.5889427562986
 20
-880.1347193584907
 10
545.5889427562986
 20
-880.1347193584907
 10
545.8059837718694
 20
-881.1134709858501
 10
545.5889427562986
 20
-880.1347193584907
 97
        0
 97
        0
 75
     2
 76
     1
 98
        0
  0
ENDBLK
  5
3C8
330
3C5
100
AcDbEntity
  8
0
100
AcDbBlockEnd
  0
BLOCK
  5
3CD
330
3CB
100
AcDbEntity
  8
0
100
AcDbBlockBegin
  2
block 39
 70
     0
 10
0.0
 20
0.0
 30
0.0
  3
block 39
  1

  0
SPLINE
  5
3CF
330
3CB
100
AcDbEntity
  8
Layer 1
370
     0
100
AcDbSpline
210
0.0
220
0.0
230
1.0
 70
    11
 71
     3
 72
    14
 73
    10
 74
     0
 42
0.0000000001
 43
0.0000000001
 12
1.0
 22
0.0
 32
0.0
 13
1.0
 23
0.0
 33
0.0
 40
0.0
 40
0.0
 40
0.0
 40
0.0
 40
1.0
 40
1.0
 40
1.0
 40
2.0
 40
2.0
 40
2.0
 40
3.0
 40
3.0
 40
3.0
 40
3.0
 10
519.0734208445247
 20
-874.6146428624749
 30
0.0
 10
518.857757867148
 20
-877.5471081395194
 30
0.0
 10
517.6540415046018
 20
-879.4877304263607
 30
0.0
 10
516.2188147254467
 20
-881.9096325524913
 30
0.0
 10
516.23672922197
 20
-878.8679577485642
 30
0.0
 10
516.6501406802
 20
-876.1463323152169
 30
0.0
 10
518.5187604713994
 20
-874.1733261308143
 30
0.0
 10
518.7585391171729
 20
-873.846386569264
 30
0.0
 10
519.1340545250652
 20
-873.9032306447707
 30
0.0
 10
519.0734208445247
 20
-874.6146428624749
 30
0.0
  0
ENDBLK
  5
3CE
330
3CB
100
AcDbEntity
  8
0
100
AcDbBlockEnd
  0
BLOCK
  5
3D2
330
3D0
100
AcDbEntity
  8
0
100
AcDbBlockBegin
  2
block 40
 70
     0
 10
0.0
 20
0.0
 30
0.0
  3
block 40
  1

  0
SPLINE
  5
3D4
330
3D0
100
AcDbEntity
  8
Layer 1
370
     0
100
AcDbSpline
210
0.0
220
0.0
230
1.0
 70
    11
 71
     3
 72
    14
 73
    10
 74
     0
 42
0.0000000001
 43
0.0000000001
 12
1.0
 22
0.0
 32
0.0
 13
1.0
 23
0.0
 33
0.0
 40
0.0
 40
0.0
 40
0.0
 40
0.0
 40
1.0
 40
1.0
 40
1.0
 40
2.0
 40
2.0
 40
2.0
 40
3.0
 40
3.0
 40
3.0
 40
3.0
 10
548.3057450559667
 20
-886.8681584844114
 30
0.0
 10
548.2960987886079
 20
-887.1144828116068
 30
0.0
 10
547.7090545179213
 20
-887.7631942914793
 30
0.0
 10
546.6527882421437
 20
-887.946128861746
 30
0.0
 10
546.4598628949698
 20
-886.704516448862
 30
0.0
 10
547.0593095094032
 20
-885.9793238492169
 30
0.0
 10
547.6463537800898
 20
-885.9793238492169
 30
0.0
 10
548.13211224351
 20
-885.9793238492169
 30
0.0
 10
548.3326168007516
 20
-886.1615694003867
 30
0.0
 10
548.3057450559667
 20
-886.8681584844114
 30
0.0
  0
ENDBLK
  5
3D3
330
3D0
100
AcDbEntity
  8
0
100
AcDbBlockEnd
  0
BLOCK
  5
3D7
330
3D5
100
AcDbEntity
  8
0
100
AcDbBlockBegin
  2
block 41
 70
     0
 10
0.0
 20
0.0
 30
0.0
  3
block 41
  1

  0
SPLINE
  5
3D9
330
3D5
100
AcDbEntity
  8
Layer 1
370
     0
100
AcDbSpline
210
0.0
220
0.0
230
1.0
 70
    11
 71
     3
 72
   200
 73
   196
 74
     0
 42
0.0000000001
 43
0.0000000001
 12
1.0
 22
0.0
 32
0.0
 13
1.0
 23
0.0
 33
0.0
 40
0.0
 40
0.0
 40
0.0
 40
0.0
 40
1.0
 40
1.0
 40
1.0
 40
2.0
 40
2.0
 40
2.0
 40
3.0
 40
3.0
 40
3.0
 40
4.0
 40
4.0
 40
4.0
 40
5.0
 40
5.0
 40
5.0
 40
6.0
 40
6.0
 40
6.0
 40
7.0
 40
7.0
 40
7.0
 40
8.0
 40
8.0
 40
8.0
 40
9.0
 40
9.0
 40
9.0
 40
10.0
 40
10.0
 40
10.0
 40
11.0
 40
11.0
 40
11.0
 40
12.0
 40
12.0
 40
12.0
 40
13.0
 40
13.0
 40
13.0
 40
14.0
 40
14.0
 40
14.0
 40
15.0
 40
15.0
 40
15.0
 40
16.0
 40
16.0
 40
16.0
 40
17.0
 40
17.0
 40
17.0
 40
18.0
 40
18.0
 40
18.0
 40
19.0
 40
19.0
 40
19.0
 40
20.0
 40
20.0
 40
20.0
 40
21.0
 40
21.0
 40
21.0
 40
22.0
 40
22.0
 40
22.0
 40
23.0
 40
23.0
 40
23.0
 40
24.0
 40
24.0
 40
24.0
 40
25.0
 40
25.0
 40
25.0
 40
26.0
 40
26.0
 40
26.0
 40
27.0
 40
27.0
 40
27.0
 40
28.0
 40
28.0
 40
28.0
 40
29.0
 40
29.0
 40
29.0
 40
30.0
 40
30.0
 40
30.0
 40
31.0
 40
31.0
 40
31.0
 40
32.0
 40
32.0
 40
32.0
 40
33.0
 40
33.0
 40
33.0
 40
34.0
 40
34.0
 40
34.0
 40
35.0
 40
35.0
 40
35.0
 40
36.0
 40
36.0
 40
36.0
 40
37.0
 40
37.0
 40
37.0
 40
38.0
 40
38.0
 40
38.0
 40
39.0
 40
39.0
 40
39.0
 40
40.0
 40
40.0
 40
40.0
 40
41.0
 40
41.0
 40
41.0
 40
42.0
 40
42.0
 40
42.0
 40
43.0
 40
43.0
 40
43.0
 40
44.0
 40
44.0
 40
44.0
 40
45.0
 40
45.0
 40
45.0
 40
46.0
 40
46.0
 40
46.0
 40
47.0
 40
47.0
 40
47.0
 40
48.0
 40
48.0
 40
48.0
 40
49.0
 40
49.0
 40
49.0
 40
50.0
 40
50.0
 40
50.0
 40
51.0
 40
51.0
 40
51.0
 40
52.0
 40
52.0
 40
52.0
 40
53.0
 40
53.0
 40
53.0
 40
54.0
 40
54.0
 40
54.0
 40
55.0
 40
55.0
 40
55.0
 40
56.0
 40
56.0
 40
56.0
 40
57.0
 40
57.0
 40
57.0
 40
58.0
 40
58.0
 40
58.0
 40
59.0
 40
59.0
 40
59.0
 40
60.0
 40
60.0
 40
60.0
 40
61.0
 40
61.0
 40
61.0
 40
62.0
 40
62.0
 40
62.0
 40
63.0
 40
63.0
 40
63.0
 40
64.0
 40
64.0
 40
64.0
 40
65.0
 40
65.0
 40
65.0
 40
65.0
 10
556.102685158184
 20
-889.4530136269943
 30
0.0
 10
556.102685158184
 20
-889.4530136269943
 30
0.0
 10
556.3314394984046
 20
-890.4079940955056
 30
0.0
 10
556.3314394984046
 20
-890.4079940955056
 30
0.0
 10
556.4575299931648
 20
-890.9033988262846
 30
0.0
 10
556.6029130226424
 20
-891.363663583114
 30
0.0
 10
556.846136763901
 20
-891.8166936394243
 30
0.0
 10
558.389539541293
 20
-893.8820283828315
 30
0.0
 10
562.3293507382247
 20
-893.6453503229949
 30
0.0
 10
564.348176692581
 20
-893.019376473325
 30
0.0
 10
565.4664546870931
 20
-892.6717663388633
 30
0.0
 10
566.540635459394
 20
-892.0974689214721
 30
0.0
 10
567.547981379281
 20
-891.4987113261358
 30
0.0
 10
570.1159555539863
 20
-893.1868081139081
 30
0.0
 10
573.3591684438005
 20
-893.709084589472
 30
0.0
 10
576.6085825054881
 20
-893.7218314427674
 30
0.0
 10
579.929654553269
 20
-893.7342337865143
 30
0.0
 10
583.3203175298519
 20
-893.211612801402
 30
0.0
 10
586.107399777419
 20
-892.8057805532395
 30
0.0
 10
589.0715599329279
 20
-892.6156112824538
 30
0.0
 10
591.4348954358094
 20
-891.2179360440879
 30
0.0
 10
594.5533958690575
 20
-891.888696135066
 30
0.0
 10
595.2258785077782
 20
-891.6640759094278
 30
0.0
 10
595.7557341934097
 20
-891.3209443990968
 30
0.0
 10
595.706124818422
 20
-890.4848197248267
 30
0.0
 10
595.4043344539142
 20
-889.7448132145951
 30
0.0
 10
594.9860998620048
 20
-889.227704382259
 30
0.0
 10
594.1144907042367
 20
-889.1584579630055
 30
0.0
 10
592.6441239511321
 20
-889.7909774940974
 30
0.0
 10
590.9842769463387
 20
-889.6035642996998
 30
0.0
 10
589.4491423981113
 20
-889.9804577457861
 30
0.0
 10
585.5472272515174
 20
-890.8899629538921
 30
0.0
 10
581.3931311154031
 20
-891.246874846164
 30
0.0
 10
576.9778967415069
 20
-891.4859644728404
 30
0.0
 10
574.2404238689275
 20
-891.4628823330892
 30
0.0
 10
570.7801699635424
 20
-891.4205076586205
 30
0.0
 10
568.871587064714
 20
-889.1133272121488
 30
0.0
 10
568.6607472210168
 20
-888.4181069432253
 30
0.0
 10
569.2312550333742
 20
-887.4951658627269
 30
0.0
 10
569.0038787313476
 20
-886.5067679680087
 30
0.0
 10
568.6476558581728
 20
-885.8170598518617
 30
0.0
 10
568.0640566829715
 20
-885.360584700066
 30
0.0
 10
567.215874174503
 20
-885.5845159066073
 30
0.0
 10
566.0528099386827
 20
-886.4247746954597
 30
0.0
 10
566.0686573779147
 20
-887.8114256282728
 30
0.0
 10
566.1726992615694
 20
-889.0719860663257
 30
0.0
 10
564.4983828557379
 20
-891.2358505406112
 30
0.0
 10
560.6446990459375
 20
-892.1391545768437
 30
0.0
 10
558.9944983085028
 20
-890.461393075527
 30
0.0
 10
558.9083709213716
 20
-890.164770354247
 30
0.0
 10
558.7430063380796
 20
-889.5825492172398
 30
0.0
 10
558.9111269977598
 20
-889.1543238484232
 30
0.0
 10
558.9262854178949
 20
-889.1026474161445
 30
0.0
 10
558.942132857127
 20
-889.0464923597349
 30
0.0
 10
558.9497120671946
 20
-888.9827580932578
 30
0.0
 10
559.0358394543258
 20
-888.3326685751912
 30
0.0
 10
558.8222435342403
 20
-887.8455320735768
 30
0.0
 10
558.2276200534861
 20
-887.634347720331
 30
0.0
 10
557.0969397152272
 20
-887.2192137143584
 30
0.0
 10
557.163774567641
 20
-886.711751149381
 30
0.0
 10
556.363134376869
 20
-886.0051620653563
 30
0.0
 10
555.5397565558942
 20
-885.2468965490528
 30
0.0
 10
554.5806419728007
 20
-885.6120766704894
 30
0.0
 10
554.0087561222492
 20
-886.3717202249869
 30
0.0
 10
553.868196226451
 20
-888.4057045994784
 30
0.0
 10
552.4315914091019
 20
-890.0727863047908
 30
0.0
 10
550.8516706195662
 20
-891.1679821595518
 30
0.0
 10
549.8422576423881
 20
-891.5169703322075
 30
0.0
 10
548.5772185802043
 20
-891.4015596334517
 30
0.0
 10
547.7510846828415
 20
-890.8410425980015
 30
0.0
 10
547.4768550822155
 20
-890.6515623463127
 30
0.0
 10
547.3803924086285
 20
-890.4421005408096
 30
0.0
 10
547.3748802558521
 20
-890.2943059444924
 30
0.0
 10
548.6922847694117
 20
-889.9236136702796
 30
0.0
 10
549.8732635017553
 20
-889.0278888441145
 30
0.0
 10
550.5478131977673
 20
-887.7973007367833
 30
0.0
 10
551.3463863312481
 20
-885.6544513449579
 30
0.0
 10
549.7974714010799
 20
-883.3672524523006
 30
0.0
 10
547.4169104207722
 20
-883.6993596570786
 30
0.0
 10
545.2216955775709
 20
-884.0066621743629
 30
0.0
 10
544.1392465761055
 20
-885.5562661236282
 30
0.0
 10
544.24328845976
 20
-888.2265596342454
 30
0.0
 10
543.0361270017285
 20
-888.1762612401608
 30
0.0
 10
541.95436701936
 20
-887.7745631065807
 30
0.0
 10
540.8326439293627
 20
-887.3232555980129
 30
0.0
 10
539.8707732698809
 20
-886.9346488272768
 30
0.0
 10
539.6985184956185
 20
-886.0316893005928
 30
0.0
 10
538.2977426713159
 20
-886.2931720479232
 30
0.0
 10
537.196001135133
 20
-887.4583033410347
 30
0.0
 10
537.9683915429259
 20
-888.2238035578572
 30
0.0
 10
538.6904835566344
 20
-889.1439885619675
 30
0.0
 10
539.4139536085368
 20
-890.061761999238
 30
0.0
 10
539.3808806918784
 20
-891.4384221551438
 30
0.0
 10
538.2350419334844
 20
-892.0888561827591
 30
0.0
 10
536.5924204061172
 20
-892.4781519725923
 30
0.0
 10
535.2185163265996
 20
-891.040169117049
 30
0.0
 10
534.219438635877
 20
-889.9742565739127
 30
0.0
 10
534.232529998721
 20
-889.338636456884
 30
0.0
 10
534.2511335143414
 20
-888.1049477636161
 30
0.0
 10
534.0878359883405
 20
-887.5613116960437
 30
0.0
 10
533.762618974533
 20
-886.470249955865
 30
0.0
 10
533.0577524382509
 20
-885.5335284934256
 30
0.0
 10
531.763774573991
 20
-885.9658879768245
 30
0.0
 10
530.9555551731514
 20
-887.0407577682224
 30
0.0
 10
531.2649247477268
 20
-888.3281899510603
 30
0.0
 10
531.70796402713
 20
-889.4247638440154
 30
0.0
 10
531.3462290011787
 20
-890.5478649722068
 30
0.0
 10
530.8115501818679
 20
-891.6430608269677
 30
0.0
 10
529.7628631161579
 20
-892.1997882573841
 30
0.0
 10
528.5439883334765
 20
-892.4902098067906
 30
0.0
 10
526.4218095145626
 20
-892.1987547287385
 30
0.0
 10
525.543999184921
 20
-890.0228324202548
 30
0.0
 10
525.5942975790056
 20
-889.7337889090422
 30
0.0
 10
525.7279672838333
 20
-888.9114446167131
 30
0.0
 10
525.7293453220274
 20
-888.0732528851519
 30
0.0
 10
525.7307233602215
 20
-887.5557995432673
 30
0.0
 10
525.682492023428
 20
-886.9959715269142
 30
0.0
 10
525.5157494019419
 20
-886.5394963751186
 30
0.0
 10
524.9700462770784
 20
-885.0563827687185
 30
0.0
 10
522.745892631801
 20
-885.0718856984022
 30
0.0
 10
522.7472706699951
 20
-887.6226343956812
 30
0.0
 10
522.7472706699951
 20
-888.2327608061189
 30
0.0
 10
522.8382211908057
 20
-888.8446097642992
 30
0.0
 10
522.9808481438951
 20
-889.4357881495681
 30
0.0
 10
522.096147623283
 20
-891.2530760180374
 30
0.0
 10
520.2750701497798
 20
-891.6179116299254
 30
0.0
 10
518.9962507056551
 20
-891.3733098504727
 30
0.0
 10
517.1186736661939
 20
-890.4152287960246
 30
0.0
 10
516.51233686079
 20
-888.37263168282
 30
0.0
 10
516.2470645084258
 20
-886.2697453986235
 30
0.0
 10
517.5906517476732
 20
-884.4176620657532
 30
0.0
 10
518.7233991432233
 20
-882.7950220922005
 30
0.0
 10
519.8954206273053
 20
-880.5408961162016
 30
0.0
 10
521.2403859047469
 20
-878.0421683607499
 30
0.0
 10
521.7612843421166
 20
-877.0203530398247
 30
0.0
 10
521.8660152448682
 20
-873.9400931664629
 30
0.0
 10
521.5449323456429
 20
-870.1449759799117
 30
0.0
 10
516.8768279631295
 20
-871.2288030195713
 30
0.0
 10
515.8811953678922
 20
-873.2400497638602
 30
0.0
 10
513.5033904639728
 20
-876.9652315120608
 30
0.0
 10
513.093424101228
 20
-881.9716442712258
 30
0.0
 10
513.5123477122344
 20
-886.2087672085346
 30
0.0
 10
513.0458817835316
 20
-887.0851994999822
 30
0.0
 10
512.3423932854436
 20
-887.7583711578
 30
0.0
 10
511.6492400738113
 20
-888.4515243694323
 30
0.0
 10
511.0098303517489
 20
-889.0020506279752
 30
0.0
 10
510.486175837991
 20
-889.150878752938
 30
0.0
 10
510.1127274873899
 20
-890.0052624332799
 30
0.0
 10
510.2987626435934
 20
-890.3501164913534
 30
0.0
 10
510.3531951522603
 20
-890.4048935095689
 30
0.0
 10
510.7948563934693
 20
-890.6711993905787
 30
0.0
 10
512.154980091046
 20
-891.0884004538425
 30
0.0
 10
512.9638885109827
 20
-890.2595104800914
 30
0.0
 10
513.8306745350715
 20
-889.4285534490491
 30
0.0
 10
513.8306745350715
 20
-889.4285534490491
 30
0.0
 10
514.2082570002549
 20
-889.0771537095536
 30
0.0
 10
514.2082570002549
 20
-889.0771537095536
 30
0.0
 10
515.1046708455169
 20
-890.9536972203692
 30
0.0
 10
516.4737517913552
 20
-893.1072264081989
 30
0.0
 10
518.6799909401092
 20
-893.7207979141219
 30
0.0
 10
519.958810384234
 20
-893.9354273628529
 30
0.0
 10
521.5077253144023
 20
-893.9271591336883
 30
0.0
 10
522.6659664165433
 20
-893.2036890817859
 30
0.0
 10
522.6659664165433
 20
-893.2036890817859
 30
0.0
 10
524.371977700839
 20
-892.1081487174764
 30
0.0
 10
524.371977700839
 20
-892.1081487174764
 30
0.0
 10
525.612901094626
 20
-893.5716252796105
 30
0.0
 10
527.2238277435288
 20
-894.7477808782749
 30
0.0
 10
529.350140677025
 20
-894.5476208305819
 30
0.0
 10
530.7522945395217
 20
-894.4869871500414
 30
0.0
 10
531.8616152857721
 20
-893.4882539688675
 30
0.0
 10
532.7573401119371
 20
-892.5181150802212
 30
0.0
 10
532.7573401119371
 20
-892.5181150802212
 30
0.0
 10
533.2720373774334
 20
-891.943128643733
 30
0.0
 10
533.2720373774334
 20
-891.943128643733
 30
0.0
 10
534.6521426288244
 20
-893.3945473716688
 30
0.0
 10
536.2596241822421
 20
-894.7474363687263
 30
0.0
 10
538.6649898500435
 20
-894.3019855224835
 30
0.0
 10
540.1394907177304
 20
-894.1114717421492
 30
0.0
 10
540.9242834692703
 20
-893.2973956789847
 30
0.0
 10
541.5003034344041
 20
-892.0072074197586
 30
0.0
 10
541.7717769586418
 20
-891.3757214173123
 30
0.0
 10
541.6932287815781
 20
-890.6870468298109
 30
0.0
 10
541.6250158909702
 20
-890.0280000634825
 30
0.0
 10
542.6275386771779
 20
-890.2863822248763
 30
0.0
 10
543.6672684946262
 20
-890.5003226545103
 30
0.0
 10
544.7028641974923
 20
-890.5395967430421
 30
0.0
 10
545.057020013376
 20
-891.4553031230216
 30
0.0
 10
545.6833383725944
 20
-892.5188040993182
 30
0.0
 10
546.6066239626414
 20
-892.9442733917466
 30
0.0
 10
548.6054683631834
 20
-893.8651474149539
 30
0.0
 10
548.7184674950996
 20
-893.7135632136028
 30
0.0
 10
550.5981115918519
 20
-893.6139999540792
 30
0.0
 10
552.9972760877798
 20
-893.1685491078364
 30
0.0
 10
554.7597869380337
 20
-891.294761673409
 30
0.0
 10
556.102685158184
 20
-889.4530136269943
 30
0.0
  0
ENDBLK
  5
3D8
330
3D5
100
AcDbEntity
  8
0
100
AcDbBlockEnd
  0
BLOCK
  5
3DC
330
3DA
100
AcDbEntity
  8
0
100
AcDbBlockBegin
  2
block 42
 70
     0
 10
0.0
 20
0.0
 30
0.0
  3
block 42
  1

  0
SPLINE
  5
3DE
330
3DA
100
AcDbEntity
  8
Layer 1
370
     0
100
AcDbSpline
210
0.0
220
0.0
230
1.0
 70
    11
 71
     3
 72
    53
 73
    49
 74
     0
 42
0.0000000001
 43
0.0000000001
 12
1.0
 22
0.0
 32
0.0
 13
1.0
 23
0.0
 33
0.0
 40
0.0
 40
0.0
 40
0.0
 40
0.0
 40
1.0
 40
1.0
 40
1.0
 40
2.0
 40
2.0
 40
2.0
 40
3.0
 40
3.0
 40
3.0
 40
4.0
 40
4.0
 40
4.0
 40
5.0
 40
5.0
 40
5.0
 40
6.0
 40
6.0
 40
6.0
 40
7.0
 40
7.0
 40
7.0
 40
8.0
 40
8.0
 40
8.0
 40
9.0
 40
9.0
 40
9.0
 40
10.0
 40
10.0
 40
10.0
 40
11.0
 40
11.0
 40
11.0
 40
12.0
 40
12.0
 40
12.0
 40
13.0
 40
13.0
 40
13.0
 40
14.0
 40
14.0
 40
14.0
 40
15.0
 40
15.0
 40
15.0
 40
16.0
 40
16.0
 40
16.0
 40
16.0
 10
497.5305497561604
 20
-876.0874211824191
 30
0.0
 10
497.5305497561604
 20
-876.0874211824191
 30
0.0
 10
497.0213646434405
 20
-875.6164766295855
 30
0.0
 10
497.0213646434405
 20
-875.6164766295855
 30
0.0
 10
497.0213646434405
 20
-875.6164766295855
 30
0.0
 10
497.5119462405401
 20
-875.3794540602003
 30
0.0
 10
497.5119462405401
 20
-875.3794540602003
 30
0.0
 10
498.282958610139
 20
-875.1320962043593
 30
0.0
 10
499.1194277939576
 20
-875.0704289951734
 30
0.0
 10
499.5114796601791
 20
-875.9654648022413
 30
0.0
 10
499.607253314669
 20
-876.7506020633297
 30
0.0
 10
499.2799692435703
 20
-877.2246472021001
 30
0.0
 10
498.723930832251
 20
-877.7138507610056
 30
0.0
 10
497.5271046606752
 20
-877.8227157783394
 30
0.0
 10
496.725086431709
 20
-878.925490843168
 30
0.0
 10
495.9850799214773
 20
-879.7519692500794
 30
0.0
 10
495.1313852602324
 20
-881.7642495230137
 30
0.0
 10
495.8341847392234
 20
-884.1820175345621
 30
0.0
 10
496.2524193311327
 20
-886.2087672085346
 30
0.0
 10
496.2524193311327
 20
-886.2087672085346
 30
0.0
 10
496.5080454161383
 20
-886.4575031025696
 30
0.0
 10
496.5080454161383
 20
-886.4575031025696
 30
0.0
 10
496.9689991920647
 20
-886.9139782543652
 30
0.0
 10
497.3438255808599
 20
-887.3997367177855
 30
0.0
 10
497.3107526642015
 20
-888.0966795344515
 30
0.0
 10
496.8718474993806
 20
-889.2766247381496
 30
0.0
 10
494.5298715885078
 20
-889.8505776459922
 30
0.0
 10
494.2804466753757
 20
-887.9667994346576
 30
0.0
 10
493.85669993069
 20
-887.2192137143584
 30
0.0
 10
493.6865122137187
 20
-886.6766111754315
 30
0.0
 10
493.5776471963848
 20
-886.1229843309519
 30
0.0
 10
493.5776471963848
 20
-886.1229843309519
 30
0.0
 10
493.5011660766122
 20
-885.6861462234222
 30
0.0
 10
493.5011660766122
 20
-885.6861462234222
 30
0.0
 10
493.3571610853288
 20
-886.7775524731494
 30
0.0
 10
493.5321719359795
 20
-888.048448197658
 30
0.0
 10
493.7147619966977
 20
-889.1209064222163
 30
0.0
 10
494.090966423687
 20
-890.5409747812363
 30
0.0
 10
495.0707515796921
 20
-891.625490839993
 30
0.0
 10
496.4749724994799
 20
-892.1956541428018
 30
0.0
 10
499.6933807018003
 20
-892.9587427927846
 30
0.0
 10
502.3481712827338
 20
-890.7600828540982
 30
0.0
 10
504.184407176372
 20
-888.3812444215332
 30
0.0
 10
507.0762203266907
 20
-884.2516084633642
 30
0.0
 10
509.6441945013959
 20
-879.0739744585821
 30
0.0
 10
507.3077307432995
 20
-874.0713513044509
 30
0.0
 10
504.5192704575383
 20
-870.5821585969899
 30
0.0
 10
499.0491478460585
 20
-872.2027315132514
 30
0.0
 10
497.5305497561604
 20
-876.0874211824191
 30
0.0
  0
ENDBLK
  5
3DD
330
3DA
100
AcDbEntity
  8
0
100
AcDbBlockEnd
  0
BLOCK
  5
3E1
330
3DF
100
AcDbEntity
  8
0
100
AcDbBlockBegin
  2
block 43
 70
     0
 10
0.0
 20
0.0
 30
0.0
  3
block 43
  1

  0
SPLINE
  5
3E3
330
3DF
100
AcDbEntity
  8
Layer 1
370
     0
100
AcDbSpline
210
0.0
220
0.0
230
1.0
 70
    11
 71
     3
 72
    23
 73
    19
 74
     0
 42
0.0000000001
 43
0.0000000001
 12
1.0
 22
0.0
 32
0.0
 13
1.0
 23
0.0
 33
0.0
 40
0.0
 40
0.0
 40
0.0
 40
0.0
 40
1.0
 40
1.0
 40
1.0
 40
2.0
 40
2.0
 40
2.0
 40
3.0
 40
3.0
 40
3.0
 40
4.0
 40
4.0
 40
4.0
 40
5.0
 40
5.0
 40
5.0
 40
6.0
 40
6.0
 40
6.0
 40
6.0
 10
506.1901417678844
 20
-890.0879447249259
 30
0.0
 10
503.9253359958812
 20
-893.1633814646085
 30
0.0
 10
500.2356387311786
 20
-895.2128687687836
 30
0.0
 10
496.2868702859852
 20
-894.6568303574643
 30
0.0
 10
493.5032331339034
 20
-893.9154458090385
 30
0.0
 10
491.7014481951177
 20
-891.2110458531174
 30
0.0
 10
491.2411834382883
 20
-888.5514321385045
 30
0.0
 10
490.6803218932897
 20
-885.0746417747904
 30
0.0
 10
491.622900018054
 20
-881.9082545142973
 30
0.0
 10
493.4591359116922
 20
-879.2910154741529
 30
0.0
 10
494.0096621702351
 20
-875.4893526061798
 30
0.0
 10
496.1718040967779
 20
-871.8385849204604
 30
0.0
 10
499.9448726722235
 20
-870.1604789095953
 30
0.0
 10
502.2971838695521
 20
-869.3023056242196
 30
0.0
 10
507.564045847402
 20
-868.9243786494876
 30
0.0
 10
509.3486053087615
 20
-872.7818520643219
 30
0.0
 10
512.5883731030904
 20
-878.7566811643907
 30
0.0
 10
509.3396480604998
 20
-885.3168319874035
 30
0.0
 10
506.1901417678844
 20
-890.0879447249259
 30
0.0
  0
ENDBLK
  5
3E2
330
3DF
100
AcDbEntity
  8
0
100
AcDbBlockEnd
  0
BLOCK
  5
3E6
330
3E4
100
AcDbEntity
  8
0
100
AcDbBlockBegin
  2
block 44
 70
     0
 10
0.0
 20
0.0
 30
0.0
  3
block 44
  1

  0
SPLINE
  5
3E8
330
3E4
100
AcDbEntity
  8
Layer 1
370
     0
100
AcDbSpline
210
0.0
220
0.0
230
1.0
 70
    11
 71
     3
 72
    17
 73
    13
 74
     0
 42
0.0000000001
 43
0.0000000001
 12
1.0
 22
0.0
 32
0.0
 13
1.0
 23
0.0
 33
0.0
 40
0.0
 40
0.0
 40
0.0
 40
0.0
 40
1.0
 40
1.0
 40
1.0
 40
2.0
 40
2.0
 40
2.0
 40
3.0
 40
3.0
 40
3.0
 40
4.0
 40
4.0
 40
4.0
 40
4.0
 10
568.7730573338359
 20
-883.0478921008179
 30
0.0
 10
568.926019573381
 20
-882.5828042103092
 30
0.0
 10
568.8764101983934
 20
-881.9637205516098
 30
0.0
 10
568.5980464831853
 20
-881.5354951827932
 30
0.0
 10
567.9958437923635
 20
-880.7775741760382
 30
0.0
 10
566.8355356329314
 20
-880.2391057516937
 30
0.0
 10
566.1155106765142
 20
-881.2323267800912
 30
0.0
 10
565.7530866314659
 20
-882.118749848446
 30
0.0
 10
566.0245601557036
 20
-883.0010388022184
 30
0.0
 10
566.7363168829562
 20
-883.6094426649136
 30
0.0
 10
567.4928598515171
 20
-883.7906546874377
 30
0.0
 10
568.3548227419266
 20
-883.9718667099619
 30
0.0
 10
568.7730573338359
 20
-883.0478921008179
 30
0.0
  0
ENDBLK
  5
3E7
330
3E4
100
AcDbEntity
  8
0
100
AcDbBlockEnd
  0
BLOCK
  5
3EB
330
3E9
100
AcDbEntity
  8
0
100
AcDbBlockBegin
  2
block 45
 70
     0
 10
0.0
 20
0.0
 30
0.0
  3
block 45
  1

  0
SPLINE
  5
3ED
330
3E9
100
AcDbEntity
  8
Layer 1
370
     0
100
AcDbSpline
210
0.0
220
0.0
230
1.0
 70
    11
 71
     3
 72
    17
 73
    13
 74
     0
 42
0.0000000001
 43
0.0000000001
 12
1.0
 22
0.0
 32
0.0
 13
1.0
 23
0.0
 33
0.0
 40
0.0
 40
0.0
 40
0.0
 40
0.0
 40
1.0
 40
1.0
 40
1.0
 40
2.0
 40
2.0
 40
2.0
 40
3.0
 40
3.0
 40
3.0
 40
4.0
 40
4.0
 40
4.0
 40
4.0
 10
525.3345373794177
 20
-881.6281682513464
 30
0.0
 10
524.9452415895845
 20
-882.186273719957
 30
0.0
 10
523.9840599491998
 20
-882.187651758151
 30
0.0
 10
523.4872771802268
 20
-881.9847356340698
 30
0.0
 10
522.7686302620037
 20
-881.691558008275
 30
0.0
 10
522.0858123368272
 20
-880.7434677307342
 30
0.0
 10
522.6122229269733
 20
-879.8267278221093
 30
0.0
 10
523.199956216757
 20
-878.8035344629901
 30
0.0
 10
524.4195200185354
 20
-879.0846542545864
 30
0.0
 10
525.049283473239
 20
-879.5976289723402
 30
0.0
 10
525.4440914158487
 20
-879.9187118715655
 30
0.0
 10
525.8602589504669
 20
-880.8764484164649
 30
0.0
 10
525.3345373794177
 20
-881.6281682513464
 30
0.0
  0
ENDBLK
  5
3EC
330
3E9
100
AcDbEntity
  8
0
100
AcDbBlockEnd
  0
BLOCK
  5
3F0
330
3EE
100
AcDbEntity
  8
0
100
AcDbBlockBegin
  2
block 46
 70
     0
 10
0.0
 20
0.0
 30
0.0
  3
block 46
  1

  0
SPLINE
  5
3F2
330
3EE
100
AcDbEntity
  8
Layer 1
370
     0
100
AcDbSpline
210
0.0
220
0.0
230
1.0
 70
    11
 71
     3
 72
    17
 73
    13
 74
     0
 42
0.0000000001
 43
0.0000000001
 12
1.0
 22
0.0
 32
0.0
 13
1.0
 23
0.0
 33
0.0
 40
0.0
 40
0.0
 40
0.0
 40
0.0
 40
1.0
 40
1.0
 40
1.0
 40
2.0
 40
2.0
 40
2.0
 40
3.0
 40
3.0
 40
3.0
 40
4.0
 40
4.0
 40
4.0
 40
4.0
 10
519.0734208445247
 20
-874.6146428624749
 30
0.0
 10
518.857757867148
 20
-877.5471081395194
 30
0.0
 10
517.6540415046018
 20
-879.4877304263607
 30
0.0
 10
516.2188147254435
 20
-881.9096325524913
 30
0.0
 10
516.23672922197
 20
-878.8679577485642
 30
0.0
 10
516.6501406802
 20
-876.1463323152169
 30
0.0
 10
518.5187604713994
 20
-874.1733261308143
 30
0.0
 10
518.7585391171729
 20
-873.846386569264
 30
0.0
 10
519.0734208445247
 20
-874.6146428624749
 30
0.0
 10
519.0734208445247
 20
-874.6146428624749
 30
0.0
 10
519.0734208445247
 20
-874.6146428624749
 30
0.0
 10
519.1340545250652
 20
-873.9032306447707
 30
0.0
 10
519.0734208445247
 20
-874.6146428624749
 30
0.0
  0
SPLINE
  5
3F3
330
3EE
100
AcDbEntity
  8
Layer 1
370
     0
100
AcDbSpline
210
0.0
220
0.0
230
1.0
 70
    11
 71
     3
 72
    17
 73
    13
 74
     0
 42
0.0000000001
 43
0.0000000001
 12
1.0
 22
0.0
 32
0.0
 13
1.0
 23
0.0
 33
0.0
 40
0.0
 40
0.0
 40
0.0
 40
0.0
 40
1.0
 40
1.0
 40
1.0
 40
2.0
 40
2.0
 40
2.0
 40
3.0
 40
3.0
 40
3.0
 40
4.0
 40
4.0
 40
4.0
 40
4.0
 10
548.3057450559667
 20
-886.8681584844114
 30
0.0
 10
548.2960987886079
 20
-887.1144828116068
 30
0.0
 10
547.7090545179213
 20
-887.7631942914793
 30
0.0
 10
546.6527882421437
 20
-887.946128861746
 30
0.0
 10
546.4598628949698
 20
-886.704516448862
 30
0.0
 10
547.0593095094032
 20
-885.9793238492169
 30
0.0
 10
547.6463537800898
 20
-885.9793238492169
 30
0.0
 10
548.13211224351
 20
-885.9793238492169
 30
0.0
 10
548.3057450559667
 20
-886.8681584844114
 30
0.0
 10
548.3057450559667
 20
-886.8681584844114
 30
0.0
 10
548.3057450559667
 20
-886.8681584844114
 30
0.0
 10
548.3326168007516
 20
-886.1615694003867
 30
0.0
 10
548.3057450559667
 20
-886.8681584844114
 30
0.0
  0
SPLINE
  5
3F4
330
3EE
100
AcDbEntity
  8
Layer 1
370
     0
100
AcDbSpline
210
0.0
220
0.0
230
1.0
 70
    11
 71
     3
 72
   203
 73
   199
 74
     0
 42
0.0000000001
 43
0.0000000001
 12
1.0
 22
0.0
 32
0.0
 13
1.0
 23
0.0
 33
0.0
 40
0.0
 40
0.0
 40
0.0
 40
0.0
 40
1.0
 40
1.0
 40
1.0
 40
2.0
 40
2.0
 40
2.0
 40
3.0
 40
3.0
 40
3.0
 40
4.0
 40
4.0
 40
4.0
 40
5.0
 40
5.0
 40
5.0
 40
6.0
 40
6.0
 40
6.0
 40
7.0
 40
7.0
 40
7.0
 40
8.0
 40
8.0
 40
8.0
 40
9.0
 40
9.0
 40
9.0
 40
10.0
 40
10.0
 40
10.0
 40
11.0
 40
11.0
 40
11.0
 40
12.0
 40
12.0
 40
12.0
 40
13.0
 40
13.0
 40
13.0
 40
14.0
 40
14.0
 40
14.0
 40
15.0
 40
15.0
 40
15.0
 40
16.0
 40
16.0
 40
16.0
 40
17.0
 40
17.0
 40
17.0
 40
18.0
 40
18.0
 40
18.0
 40
19.0
 40
19.0
 40
19.0
 40
20.0
 40
20.0
 40
20.0
 40
21.0
 40
21.0
 40
21.0
 40
22.0
 40
22.0
 40
22.0
 40
23.0
 40
23.0
 40
23.0
 40
24.0
 40
24.0
 40
24.0
 40
25.0
 40
25.0
 40
25.0
 40
26.0
 40
26.0
 40
26.0
 40
27.0
 40
27.0
 40
27.0
 40
28.0
 40
28.0
 40
28.0
 40
29.0
 40
29.0
 40
29.0
 40
30.0
 40
30.0
 40
30.0
 40
31.0
 40
31.0
 40
31.0
 40
32.0
 40
32.0
 40
32.0
 40
33.0
 40
33.0
 40
33.0
 40
34.0
 40
34.0
 40
34.0
 40
35.0
 40
35.0
 40
35.0
 40
36.0
 40
36.0
 40
36.0
 40
37.0
 40
37.0
 40
37.0
 40
38.0
 40
38.0
 40
38.0
 40
39.0
 40
39.0
 40
39.0
 40
40.0
 40
40.0
 40
40.0
 40
41.0
 40
41.0
 40
41.0
 40
42.0
 40
42.0
 40
42.0
 40
43.0
 40
43.0
 40
43.0
 40
44.0
 40
44.0
 40
44.0
 40
45.0
 40
45.0
 40
45.0
 40
46.0
 40
46.0
 40
46.0
 40
47.0
 40
47.0
 40
47.0
 40
48.0
 40
48.0
 40
48.0
 40
49.0
 40
49.0
 40
49.0
 40
50.0
 40
50.0
 40
50.0
 40
51.0
 40
51.0
 40
51.0
 40
52.0
 40
52.0
 40
52.0
 40
53.0
 40
53.0
 40
53.0
 40
54.0
 40
54.0
 40
54.0
 40
55.0
 40
55.0
 40
55.0
 40
56.0
 40
56.0
 40
56.0
 40
57.0
 40
57.0
 40
57.0
 40
58.0
 40
58.0
 40
58.0
 40
59.0
 40
59.0
 40
59.0
 40
60.0
 40
60.0
 40
60.0
 40
61.0
 40
61.0
 40
61.0
 40
62.0
 40
62.0
 40
62.0
 40
63.0
 40
63.0
 40
63.0
 40
64.0
 40
64.0
 40
64.0
 40
65.0
 40
65.0
 40
65.0
 40
66.0
 40
66.0
 40
66.0
 40
66.0
 10
556.1026851581809
 20
-889.4530136269943
 30
0.0
 10
556.1026851581809
 20
-889.4530136269943
 30
0.0
 10
556.3314394984046
 20
-890.4079940955056
 30
0.0
 10
556.3314394984046
 20
-890.4079940955056
 30
0.0
 10
556.4575299931648
 20
-890.9033988262846
 30
0.0
 10
556.6029130226424
 20
-891.363663583114
 30
0.0
 10
556.846136763901
 20
-891.8166936394243
 30
0.0
 10
558.389539541293
 20
-893.8820283828315
 30
0.0
 10
562.3293507382247
 20
-893.6453503229949
 30
0.0
 10
564.3481766925778
 20
-893.019376473325
 30
0.0
 10
565.4664546870899
 20
-892.6717663388633
 30
0.0
 10
566.5406354593908
 20
-892.0974689214721
 30
0.0
 10
567.547981379281
 20
-891.4987113261358
 30
0.0
 10
570.1159555539831
 20
-893.1868081139081
 30
0.0
 10
573.3591684438005
 20
-893.709084589472
 30
0.0
 10
576.608582505485
 20
-893.7218314427674
 30
0.0
 10
579.929654553269
 20
-893.7342337865143
 30
0.0
 10
583.3203175298519
 20
-893.211612801402
 30
0.0
 10
586.107399777419
 20
-892.8057805532395
 30
0.0
 10
589.0715599329247
 20
-892.6156112824538
 30
0.0
 10
591.4348954358094
 20
-891.2179360440879
 30
0.0
 10
594.5533958690575
 20
-891.888696135066
 30
0.0
 10
595.2258785077782
 20
-891.6640759094278
 30
0.0
 10
595.7557341934097
 20
-891.3209443990968
 30
0.0
 10
595.706124818422
 20
-890.4848197248267
 30
0.0
 10
595.4043344539142
 20
-889.7448132145951
 30
0.0
 10
594.9860998620048
 20
-889.227704382259
 30
0.0
 10
594.1144907042367
 20
-889.1584579630055
 30
0.0
 10
592.6441239511321
 20
-889.7909774940974
 30
0.0
 10
590.9842769463355
 20
-889.6035642996998
 30
0.0
 10
589.4491423981113
 20
-889.9804577457861
 30
0.0
 10
585.5472272515142
 20
-890.8899629538921
 30
0.0
 10
581.3931311154031
 20
-891.246874846164
 30
0.0
 10
576.9778967415069
 20
-891.4859644728404
 30
0.0
 10
574.2404238689275
 20
-891.4628823330892
 30
0.0
 10
570.7801699635424
 20
-891.4205076586205
 30
0.0
 10
568.871587064714
 20
-889.1133272121488
 30
0.0
 10
568.6607472210168
 20
-888.4181069432253
 30
0.0
 10
569.2312550333742
 20
-887.4951658627269
 30
0.0
 10
569.0038787313476
 20
-886.5067679680087
 30
0.0
 10
568.6476558581728
 20
-885.8170598518617
 30
0.0
 10
568.0640566829715
 20
-885.360584700066
 30
0.0
 10
567.215874174503
 20
-885.5845159066073
 30
0.0
 10
566.0528099386794
 20
-886.4247746954597
 30
0.0
 10
566.0686573779147
 20
-887.8114256282728
 30
0.0
 10
566.1726992615694
 20
-889.0719860663257
 30
0.0
 10
564.4983828557379
 20
-891.2358505406112
 30
0.0
 10
560.6446990459375
 20
-892.1391545768437
 30
0.0
 10
558.9944983085028
 20
-890.461393075527
 30
0.0
 10
558.9083709213716
 20
-890.164770354247
 30
0.0
 10
558.7430063380796
 20
-889.5825492172398
 30
0.0
 10
558.9111269977565
 20
-889.1543238484232
 30
0.0
 10
558.9262854178949
 20
-889.1026474161445
 30
0.0
 10
558.942132857127
 20
-889.0464923597349
 30
0.0
 10
558.9497120671913
 20
-888.9827580932578
 30
0.0
 10
559.0358394543258
 20
-888.3326685751912
 30
0.0
 10
558.8222435342403
 20
-887.8455320735768
 30
0.0
 10
558.2276200534861
 20
-887.634347720331
 30
0.0
 10
557.0969397152272
 20
-887.2192137143584
 30
0.0
 10
557.1637745676378
 20
-886.711751149381
 30
0.0
 10
556.363134376869
 20
-886.0051620653563
 30
0.0
 10
555.5397565558942
 20
-885.2468965490528
 30
0.0
 10
554.5806419727975
 20
-885.6120766704894
 30
0.0
 10
554.008756122246
 20
-886.3717202249869
 30
0.0
 10
553.868196226451
 20
-888.4057045994784
 30
0.0
 10
552.4315914090986
 20
-890.0727863047908
 30
0.0
 10
550.8516706195662
 20
-891.1679821595518
 30
0.0
 10
549.8422576423881
 20
-891.5169703322075
 30
0.0
 10
548.5772185802043
 20
-891.4015596334517
 30
0.0
 10
547.7510846828415
 20
-890.8410425980015
 30
0.0
 10
547.4768550822155
 20
-890.6515623463127
 30
0.0
 10
547.3803924086285
 20
-890.4421005408096
 30
0.0
 10
547.3748802558521
 20
-890.2943059444924
 30
0.0
 10
548.6922847694117
 20
-889.9236136702796
 30
0.0
 10
549.8732635017553
 20
-889.0278888441145
 30
0.0
 10
550.5478131977673
 20
-887.7973007367833
 30
0.0
 10
551.3463863312481
 20
-885.6544513449579
 30
0.0
 10
549.7974714010799
 20
-883.3672524523006
 30
0.0
 10
547.4169104207722
 20
-883.6993596570786
 30
0.0
 10
545.2216955775709
 20
-884.0066621743629
 30
0.0
 10
544.1392465761055
 20
-885.5562661236282
 30
0.0
 10
544.24328845976
 20
-888.2265596342454
 30
0.0
 10
543.0361270017253
 20
-888.1762612401608
 30
0.0
 10
541.95436701936
 20
-887.7745631065807
 30
0.0
 10
540.8326439293595
 20
-887.3232555980129
 30
0.0
 10
539.8707732698809
 20
-886.9346488272768
 30
0.0
 10
539.6985184956185
 20
-886.0316893005928
 30
0.0
 10
538.2977426713159
 20
-886.2931720479232
 30
0.0
 10
537.196001135133
 20
-887.4583033410347
 30
0.0
 10
537.9683915429259
 20
-888.2238035578572
 30
0.0
 10
538.6904835566311
 20
-889.1439885619675
 30
0.0
 10
539.4139536085368
 20
-890.061761999238
 30
0.0
 10
539.3808806918752
 20
-891.4384221551438
 30
0.0
 10
538.2350419334844
 20
-892.0888561827591
 30
0.0
 10
536.5924204061172
 20
-892.4781519725923
 30
0.0
 10
535.2185163265996
 20
-891.040169117049
 30
0.0
 10
534.219438635877
 20
-889.9742565739127
 30
0.0
 10
534.232529998721
 20
-889.338636456884
 30
0.0
 10
534.2511335143414
 20
-888.1049477636161
 30
0.0
 10
534.0878359883405
 20
-887.5613116960437
 30
0.0
 10
533.762618974533
 20
-886.470249955865
 30
0.0
 10
533.0577524382477
 20
-885.5335284934256
 30
0.0
 10
531.763774573991
 20
-885.9658879768245
 30
0.0
 10
530.9555551731482
 20
-887.0407577682224
 30
0.0
 10
531.2649247477236
 20
-888.3281899510603
 30
0.0
 10
531.70796402713
 20
-889.4247638440154
 30
0.0
 10
531.3462290011755
 20
-890.5478649722068
 30
0.0
 10
530.8115501818647
 20
-891.6430608269677
 30
0.0
 10
529.7628631161579
 20
-892.1997882573841
 30
0.0
 10
528.5439883334765
 20
-892.4902098067906
 30
0.0
 10
526.4218095145626
 20
-892.1987547287385
 30
0.0
 10
525.5439991849178
 20
-890.0228324202548
 30
0.0
 10
525.5942975790056
 20
-889.7337889090422
 30
0.0
 10
525.7279672838301
 20
-888.9114446167131
 30
0.0
 10
525.7293453220242
 20
-888.0732528851519
 30
0.0
 10
525.7307233602215
 20
-887.5557995432673
 30
0.0
 10
525.6824920234247
 20
-886.9959715269142
 30
0.0
 10
525.5157494019419
 20
-886.5394963751186
 30
0.0
 10
524.9700462770784
 20
-885.0563827687185
 30
0.0
 10
522.745892631801
 20
-885.0718856984022
 30
0.0
 10
522.747270669992
 20
-887.6226343956812
 30
0.0
 10
522.747270669992
 20
-888.2327608061189
 30
0.0
 10
522.8382211908025
 20
-888.8446097642992
 30
0.0
 10
522.9808481438919
 20
-889.4357881495681
 30
0.0
 10
522.096147623283
 20
-891.2530760180374
 30
0.0
 10
520.2750701497798
 20
-891.6179116299254
 30
0.0
 10
518.9962507056551
 20
-891.3733098504727
 30
0.0
 10
517.1186736661939
 20
-890.4152287960246
 30
0.0
 10
516.51233686079
 20
-888.37263168282
 30
0.0
 10
516.2470645084258
 20
-886.2697453986235
 30
0.0
 10
517.5906517476732
 20
-884.4176620657532
 30
0.0
 10
518.7233991432201
 20
-882.7950220922005
 30
0.0
 10
519.8954206273053
 20
-880.5408961162016
 30
0.0
 10
521.2403859047469
 20
-878.0421683607499
 30
0.0
 10
521.7612843421166
 20
-877.0203530398247
 30
0.0
 10
521.8660152448682
 20
-873.9400931664629
 30
0.0
 10
521.5449323456429
 20
-870.1449759799117
 30
0.0
 10
516.8768279631295
 20
-871.2288030195713
 30
0.0
 10
515.8811953678922
 20
-873.2400497638602
 30
0.0
 10
513.5033904639728
 20
-876.9652315120608
 30
0.0
 10
513.093424101228
 20
-881.9716442712258
 30
0.0
 10
513.5123477122344
 20
-886.2087672085346
 30
0.0
 10
513.0458817835316
 20
-887.0851994999822
 30
0.0
 10
512.3423932854436
 20
-887.7583711578
 30
0.0
 10
511.6492400738113
 20
-888.4515243694323
 30
0.0
 10
511.0098303517489
 20
-889.0020506279752
 30
0.0
 10
510.486175837991
 20
-889.150878752938
 30
0.0
 10
510.1127274873867
 20
-890.0052624332799
 30
0.0
 10
510.2987626435934
 20
-890.3501164913534
 30
0.0
 10
510.3531951522603
 20
-890.4048935095689
 30
0.0
 10
510.7948563934661
 20
-890.6711993905787
 30
0.0
 10
512.154980091046
 20
-891.0884004538425
 30
0.0
 10
512.9638885109827
 20
-890.2595104800914
 30
0.0
 10
513.8306745350715
 20
-889.4285534490491
 30
0.0
 10
513.8306745350715
 20
-889.4285534490491
 30
0.0
 10
514.2082570002549
 20
-889.0771537095536
 30
0.0
 10
514.2082570002549
 20
-889.0771537095536
 30
0.0
 10
515.1046708455169
 20
-890.9536972203692
 30
0.0
 10
516.4737517913552
 20
-893.1072264081989
 30
0.0
 10
518.6799909401092
 20
-893.7207979141219
 30
0.0
 10
519.958810384234
 20
-893.9354273628529
 30
0.0
 10
521.5077253143991
 20
-893.9271591336883
 30
0.0
 10
522.6659664165433
 20
-893.2036890817859
 30
0.0
 10
522.6659664165433
 20
-893.2036890817859
 30
0.0
 10
524.371977700839
 20
-892.1081487174764
 30
0.0
 10
524.371977700839
 20
-892.1081487174764
 30
0.0
 10
525.612901094626
 20
-893.5716252796105
 30
0.0
 10
527.2238277435288
 20
-894.7477808782749
 30
0.0
 10
529.350140677025
 20
-894.5476208305819
 30
0.0
 10
530.7522945395217
 20
-894.4869871500414
 30
0.0
 10
531.8616152857721
 20
-893.4882539688675
 30
0.0
 10
532.7573401119371
 20
-892.5181150802212
 30
0.0
 10
532.7573401119371
 20
-892.5181150802212
 30
0.0
 10
533.2720373774334
 20
-891.943128643733
 30
0.0
 10
533.2720373774334
 20
-891.943128643733
 30
0.0
 10
534.6521426288244
 20
-893.3945473716688
 30
0.0
 10
536.2596241822421
 20
-894.7474363687263
 30
0.0
 10
538.6649898500435
 20
-894.3019855224835
 30
0.0
 10
540.1394907177272
 20
-894.1114717421492
 30
0.0
 10
540.9242834692703
 20
-893.2973956789847
 30
0.0
 10
541.5003034344008
 20
-892.0072074197586
 30
0.0
 10
541.7717769586418
 20
-891.3757214173123
 30
0.0
 10
541.6932287815781
 20
-890.6870468298109
 30
0.0
 10
541.6250158909702
 20
-890.0280000634825
 30
0.0
 10
542.6275386771779
 20
-890.2863822248763
 30
0.0
 10
543.6672684946262
 20
-890.5003226545103
 30
0.0
 10
544.7028641974923
 20
-890.5395967430421
 30
0.0
 10
545.057020013376
 20
-891.4553031230216
 30
0.0
 10
545.6833383725944
 20
-892.5188040993182
 30
0.0
 10
546.6066239626414
 20
-892.9442733917466
 30
0.0
 10
548.6054683631834
 20
-893.8651474149539
 30
0.0
 10
548.7184674950996
 20
-893.7135632136028
 30
0.0
 10
550.5981115918519
 20
-893.6139999540792
 30
0.0
 10
552.9972760877798
 20
-893.1685491078364
 30
0.0
 10
556.1026851581809
 20
-889.4530136269943
 30
0.0
 10
556.1026851581809
 20
-889.4530136269943
 30
0.0
 10
556.1026851581809
 20
-889.4530136269943
 30
0.0
 10
554.7597869380337
 20
-891.294761673409
 30
0.0
 10
556.1026851581809
 20
-889.4530136269943
 30
0.0
  0
SPLINE
  5
3F5
330
3EE
100
AcDbEntity
  8
Layer 1
370
     0
100
AcDbSpline
210
0.0
220
0.0
230
1.0
 70
    11
 71
     3
 72
    56
 73
    52
 74
     0
 42
0.0000000001
 43
0.0000000001
 12
1.0
 22
0.0
 32
0.0
 13
1.0
 23
0.0
 33
0.0
 40
0.0
 40
0.0
 40
0.0
 40
0.0
 40
1.0
 40
1.0
 40
1.0
 40
2.0
 40
2.0
 40
2.0
 40
3.0
 40
3.0
 40
3.0
 40
4.0
 40
4.0
 40
4.0
 40
5.0
 40
5.0
 40
5.0
 40
6.0
 40
6.0
 40
6.0
 40
7.0
 40
7.0
 40
7.0
 40
8.0
 40
8.0
 40
8.0
 40
9.0
 40
9.0
 40
9.0
 40
10.0
 40
10.0
 40
10.0
 40
11.0
 40
11.0
 40
11.0
 40
12.0
 40
12.0
 40
12.0
 40
13.0
 40
13.0
 40
13.0
 40
14.0
 40
14.0
 40
14.0
 40
15.0
 40
15.0
 40
15.0
 40
16.0
 40
16.0
 40
16.0
 40
17.0
 40
17.0
 40
17.0
 40
17.0
 10
497.5305497561604
 20
-876.0874211824191
 30
0.0
 10
497.5305497561604
 20
-876.0874211824191
 30
0.0
 10
497.0213646434405
 20
-875.6164766295855
 30
0.0
 10
497.0213646434405
 20
-875.6164766295855
 30
0.0
 10
497.0213646434405
 20
-875.6164766295855
 30
0.0
 10
497.5119462405401
 20
-875.3794540602003
 30
0.0
 10
497.5119462405401
 20
-875.3794540602003
 30
0.0
 10
498.2829586101358
 20
-875.1320962043593
 30
0.0
 10
499.1194277939576
 20
-875.0704289951734
 30
0.0
 10
499.5114796601791
 20
-875.9654648022413
 30
0.0
 10
499.607253314669
 20
-876.7506020633297
 30
0.0
 10
499.2799692435671
 20
-877.2246472021001
 30
0.0
 10
498.7239308322478
 20
-877.7138507610056
 30
0.0
 10
497.527104660672
 20
-877.8227157783394
 30
0.0
 10
496.725086431709
 20
-878.925490843168
 30
0.0
 10
495.9850799214773
 20
-879.7519692500794
 30
0.0
 10
495.1313852602324
 20
-881.7642495230137
 30
0.0
 10
495.8341847392202
 20
-884.1820175345621
 30
0.0
 10
496.2524193311327
 20
-886.2087672085346
 30
0.0
 10
496.2524193311327
 20
-886.2087672085346
 30
0.0
 10
496.5080454161383
 20
-886.4575031025696
 30
0.0
 10
496.5080454161383
 20
-886.4575031025696
 30
0.0
 10
496.9689991920647
 20
-886.9139782543652
 30
0.0
 10
497.3438255808599
 20
-887.3997367177855
 30
0.0
 10
497.3107526642015
 20
-888.0966795344515
 30
0.0
 10
496.8718474993806
 20
-889.2766247381496
 30
0.0
 10
494.5298715885078
 20
-889.8505776459922
 30
0.0
 10
494.2804466753757
 20
-887.9667994346576
 30
0.0
 10
493.85669993069
 20
-887.2192137143584
 30
0.0
 10
493.6865122137187
 20
-886.6766111754315
 30
0.0
 10
493.5776471963816
 20
-886.1229843309519
 30
0.0
 10
493.5776471963816
 20
-886.1229843309519
 30
0.0
 10
493.5011660766122
 20
-885.6861462234222
 30
0.0
 10
493.5011660766122
 20
-885.6861462234222
 30
0.0
 10
493.3571610853288
 20
-886.7775524731494
 30
0.0
 10
493.5321719359762
 20
-888.048448197658
 30
0.0
 10
493.7147619966977
 20
-889.1209064222163
 30
0.0
 10
494.090966423687
 20
-890.5409747812363
 30
0.0
 10
495.0707515796921
 20
-891.625490839993
 30
0.0
 10
496.4749724994799
 20
-892.1956541428018
 30
0.0
 10
499.6933807018003
 20
-892.9587427927846
 30
0.0
 10
502.3481712827306
 20
-890.7600828540982
 30
0.0
 10
504.184407176372
 20
-888.3812444215332
 30
0.0
 10
507.0762203266875
 20
-884.2516084633642
 30
0.0
 10
509.6441945013959
 20
-879.0739744585821
 30
0.0
 10
507.3077307432995
 20
-874.0713513044509
 30
0.0
 10
504.5192704575383
 20
-870.5821585969899
 30
0.0
 10
497.5305497561604
 20
-876.0874211824191
 30
0.0
 10
497.5305497561604
 20
-876.0874211824191
 30
0.0
 10
497.5305497561604
 20
-876.0874211824191
 30
0.0
 10
499.0491478460585
 20
-872.2027315132514
 30
0.0
 10
497.5305497561604
 20
-876.0874211824191
 30
0.0
  0
SPLINE
  5
3F6
330
3EE
100
AcDbEntity
  8
Layer 1
370
     0
100
AcDbSpline
210
0.0
220
0.0
230
1.0
 70
    11
 71
     3
 72
    26
 73
    22
 74
     0
 42
0.0000000001
 43
0.0000000001
 12
1.0
 22
0.0
 32
0.0
 13
1.0
 23
0.0
 33
0.0
 40
0.0
 40
0.0
 40
0.0
 40
0.0
 40
1.0
 40
1.0
 40
1.0
 40
2.0
 40
2.0
 40
2.0
 40
3.0
 40
3.0
 40
3.0
 40
4.0
 40
4.0
 40
4.0
 40
5.0
 40
5.0
 40
5.0
 40
6.0
 40
6.0
 40
6.0
 40
7.0
 40
7.0
 40
7.0
 40
7.0
 10
506.1901417678844
 20
-890.0879447249259
 30
0.0
 10
503.9253359958812
 20
-893.1633814646085
 30
0.0
 10
500.2356387311754
 20
-895.2128687687836
 30
0.0
 10
496.2868702859852
 20
-894.6568303574643
 30
0.0
 10
493.5032331339034
 20
-893.9154458090385
 30
0.0
 10
491.7014481951177
 20
-891.2110458531174
 30
0.0
 10
491.2411834382883
 20
-888.5514321385045
 30
0.0
 10
490.6803218932897
 20
-885.0746417747904
 30
0.0
 10
491.622900018054
 20
-881.9082545142973
 30
0.0
 10
493.4591359116922
 20
-879.2910154741529
 30
0.0
 10
494.0096621702351
 20
-875.4893526061798
 30
0.0
 10
496.1718040967779
 20
-871.8385849204604
 30
0.0
 10
499.9448726722235
 20
-870.1604789095953
 30
0.0
 10
502.2971838695521
 20
-869.3023056242196
 30
0.0
 10
507.5640458473989
 20
-868.9243786494876
 30
0.0
 10
509.3486053087582
 20
-872.7818520643219
 30
0.0
 10
512.5883731030904
 20
-878.7566811643907
 30
0.0
 10
506.1901417678844
 20
-890.0879447249259
 30
0.0
 10
506.1901417678844
 20
-890.0879447249259
 30
0.0
 10
506.1901417678844
 20
-890.0879447249259
 30
0.0
 10
509.3396480604998
 20
-885.3168319874035
 30
0.0
 10
506.1901417678844
 20
-890.0879447249259
 30
0.0
  0
SPLINE
  5
3F7
330
3EE
100
AcDbEntity
  8
Layer 1
370
     0
100
AcDbSpline
210
0.0
220
0.0
230
1.0
 70
    11
 71
     3
 72
    20
 73
    16
 74
     0
 42
0.0000000001
 43
0.0000000001
 12
1.0
 22
0.0
 32
0.0
 13
1.0
 23
0.0
 33
0.0
 40
0.0
 40
0.0
 40
0.0
 40
0.0
 40
1.0
 40
1.0
 40
1.0
 40
2.0
 40
2.0
 40
2.0
 40
3.0
 40
3.0
 40
3.0
 40
4.0
 40
4.0
 40
4.0
 40
5.0
 40
5.0
 40
5.0
 40
5.0
 10
568.7730573338359
 20
-883.0478921008179
 30
0.0
 10
568.926019573381
 20
-882.5828042103092
 30
0.0
 10
568.8764101983934
 20
-881.9637205516098
 30
0.0
 10
568.5980464831853
 20
-881.5354951827932
 30
0.0
 10
567.9958437923635
 20
-880.7775741760382
 30
0.0
 10
566.8355356329282
 20
-880.2391057516937
 30
0.0
 10
566.115510676511
 20
-881.2323267800912
 30
0.0
 10
565.7530866314627
 20
-882.118749848446
 30
0.0
 10
566.0245601557036
 20
-883.0010388022184
 30
0.0
 10
566.7363168829562
 20
-883.6094426649136
 30
0.0
 10
567.4928598515171
 20
-883.7906546874377
 30
0.0
 10
568.7730573338359
 20
-883.0478921008179
 30
0.0
 10
568.7730573338359
 20
-883.0478921008179
 30
0.0
 10
568.7730573338359
 20
-883.0478921008179
 30
0.0
 10
568.3548227419234
 20
-883.9718667099619
 30
0.0
 10
568.7730573338359
 20
-883.0478921008179
 30
0.0
  0
SPLINE
  5
3F8
330
3EE
100
AcDbEntity
  8
Layer 1
370
     0
100
AcDbSpline
210
0.0
220
0.0
230
1.0
 70
    11
 71
     3
 72
    20
 73
    16
 74
     0
 42
0.0000000001
 43
0.0000000001
 12
1.0
 22
0.0
 32
0.0
 13
1.0
 23
0.0
 33
0.0
 40
0.0
 40
0.0
 40
0.0
 40
0.0
 40
1.0
 40
1.0
 40
1.0
 40
2.0
 40
2.0
 40
2.0
 40
3.0
 40
3.0
 40
3.0
 40
4.0
 40
4.0
 40
4.0
 40
5.0
 40
5.0
 40
5.0
 40
5.0
 10
525.3345373794145
 20
-881.6281682513464
 30
0.0
 10
524.9452415895845
 20
-882.186273719957
 30
0.0
 10
523.9840599491998
 20
-882.187651758151
 30
0.0
 10
523.4872771802236
 20
-881.9847356340698
 30
0.0
 10
522.7686302620037
 20
-881.691558008275
 30
0.0
 10
522.0858123368272
 20
-880.7434677307342
 30
0.0
 10
522.6122229269733
 20
-879.8267278221093
 30
0.0
 10
523.199956216757
 20
-878.8035344629901
 30
0.0
 10
524.4195200185354
 20
-879.0846542545864
 30
0.0
 10
525.0492834732358
 20
-879.5976289723402
 30
0.0
 10
525.4440914158455
 20
-879.9187118715655
 30
0.0
 10
525.3345373794145
 20
-881.6281682513464
 30
0.0
 10
525.3345373794145
 20
-881.6281682513464
 30
0.0
 10
525.3345373794145
 20
-881.6281682513464
 30
0.0
 10
525.8602589504669
 20
-880.8764484164649
 30
0.0
 10
525.3345373794145
 20
-881.6281682513464
 30
0.0
  0
HATCH
  5
3F9
330
3EE
100
AcDbEntity
  8
Layer 1
 62
   152
420
    26316
100
AcDbHatch
 10
0.0
 20
0.0
 30
0.0
210
0.0
220
0.0
230
1.0
  2
SOLID
 70
     1
 71
     0
 91
        7
 92
        1
 93
        1
 72
     4
 94
        3
 73
     0
 74
     1
 95
       17
 96
       13
 40
0.0
 40
0.0
 40
0.0
 40
0.0
 40
1.0
 40
1.0
 40
1.0
 40
2.0
 40
2.0
 40
2.0
 40
3.0
 40
3.0
 40
3.0
 40
4.0
 40
4.0
 40
4.0
 40
4.0
 10
519.0734208445247
 20
-874.6146428624749
 10
518.857757867148
 20
-877.5471081395194
 10
517.6540415046018
 20
-879.4877304263607
 10
516.2188147254435
 20
-881.9096325524913
 10
516.23672922197
 20
-878.8679577485642
 10
516.6501406802
 20
-876.1463323152169
 10
518.5187604713994
 20
-874.1733261308143
 10
518.7585391171729
 20
-873.846386569264
 10
519.0734208445247
 20
-874.6146428624749
 10
519.0734208445247
 20
-874.6146428624749
 10
519.0734208445247
 20
-874.6146428624749
 10
519.1340545250652
 20
-873.9032306447707
 10
519.0734208445247
 20
-874.6146428624749
 97
        0
 97
        0
 92
        1
 93
        1
 72
     4
 94
        3
 73
     0
 74
     1
 95
       17
 96
       13
 40
0.0
 40
0.0
 40
0.0
 40
0.0
 40
1.0
 40
1.0
 40
1.0
 40
2.0
 40
2.0
 40
2.0
 40
3.0
 40
3.0
 40
3.0
 40
4.0
 40
4.0
 40
4.0
 40
4.0
 10
548.3057450559667
 20
-886.8681584844114
 10
548.2960987886079
 20
-887.1144828116068
 10
547.7090545179213
 20
-887.7631942914793
 10
546.6527882421437
 20
-887.946128861746
 10
546.4598628949698
 20
-886.704516448862
 10
547.0593095094032
 20
-885.9793238492169
 10
547.6463537800898
 20
-885.9793238492169
 10
548.13211224351
 20
-885.9793238492169
 10
548.3057450559667
 20
-886.8681584844114
 10
548.3057450559667
 20
-886.8681584844114
 10
548.3057450559667
 20
-886.8681584844114
 10
548.3326168007516
 20
-886.1615694003867
 10
548.3057450559667
 20
-886.8681584844114
 97
        0
 97
        0
 92
        1
 93
        1
 72
     4
 94
        3
 73
     0
 74
     1
 95
      203
 96
      199
 40
0.0
 40
0.0
 40
0.0
 40
0.0
 40
1.0
 40
1.0
 40
1.0
 40
2.0
 40
2.0
 40
2.0
 40
3.0
 40
3.0
 40
3.0
 40
4.0
 40
4.0
 40
4.0
 40
5.0
 40
5.0
 40
5.0
 40
6.0
 40
6.0
 40
6.0
 40
7.0
 40
7.0
 40
7.0
 40
8.0
 40
8.0
 40
8.0
 40
9.0
 40
9.0
 40
9.0
 40
10.0
 40
10.0
 40
10.0
 40
11.0
 40
11.0
 40
11.0
 40
12.0
 40
12.0
 40
12.0
 40
13.0
 40
13.0
 40
13.0
 40
14.0
 40
14.0
 40
14.0
 40
15.0
 40
15.0
 40
15.0
 40
16.0
 40
16.0
 40
16.0
 40
17.0
 40
17.0
 40
17.0
 40
18.0
 40
18.0
 40
18.0
 40
19.0
 40
19.0
 40
19.0
 40
20.0
 40
20.0
 40
20.0
 40
21.0
 40
21.0
 40
21.0
 40
22.0
 40
22.0
 40
22.0
 40
23.0
 40
23.0
 40
23.0
 40
24.0
 40
24.0
 40
24.0
 40
25.0
 40
25.0
 40
25.0
 40
26.0
 40
26.0
 40
26.0
 40
27.0
 40
27.0
 40
27.0
 40
28.0
 40
28.0
 40
28.0
 40
29.0
 40
29.0
 40
29.0
 40
30.0
 40
30.0
 40
30.0
 40
31.0
 40
31.0
 40
31.0
 40
32.0
 40
32.0
 40
32.0
 40
33.0
 40
33.0
 40
33.0
 40
34.0
 40
34.0
 40
34.0
 40
35.0
 40
35.0
 40
35.0
 40
36.0
 40
36.0
 40
36.0
 40
37.0
 40
37.0
 40
37.0
 40
38.0
 40
38.0
 40
38.0
 40
39.0
 40
39.0
 40
39.0
 40
40.0
 40
40.0
 40
40.0
 40
41.0
 40
41.0
 40
41.0
 40
42.0
 40
42.0
 40
42.0
 40
43.0
 40
43.0
 40
43.0
 40
44.0
 40
44.0
 40
44.0
 40
45.0
 40
45.0
 40
45.0
 40
46.0
 40
46.0
 40
46.0
 40
47.0
 40
47.0
 40
47.0
 40
48.0
 40
48.0
 40
48.0
 40
49.0
 40
49.0
 40
49.0
 40
50.0
 40
50.0
 40
50.0
 40
51.0
 40
51.0
 40
51.0
 40
52.0
 40
52.0
 40
52.0
 40
53.0
 40
53.0
 40
53.0
 40
54.0
 40
54.0
 40
54.0
 40
55.0
 40
55.0
 40
55.0
 40
56.0
 40
56.0
 40
56.0
 40
57.0
 40
57.0
 40
57.0
 40
58.0
 40
58.0
 40
58.0
 40
59.0
 40
59.0
 40
59.0
 40
60.0
 40
60.0
 40
60.0
 40
61.0
 40
61.0
 40
61.0
 40
62.0
 40
62.0
 40
62.0
 40
63.0
 40
63.0
 40
63.0
 40
64.0
 40
64.0
 40
64.0
 40
65.0
 40
65.0
 40
65.0
 40
66.0
 40
66.0
 40
66.0
 40
66.0
 10
556.1026851581809
 20
-889.4530136269943
 10
556.1026851581809
 20
-889.4530136269943
 10
556.3314394984046
 20
-890.4079940955056
 10
556.3314394984046
 20
-890.4079940955056
 10
556.4575299931648
 20
-890.9033988262846
 10
556.6029130226424
 20
-891.363663583114
 10
556.846136763901
 20
-891.8166936394243
 10
558.389539541293
 20
-893.8820283828315
 10
562.3293507382247
 20
-893.6453503229949
 10
564.3481766925778
 20
-893.019376473325
 10
565.4664546870899
 20
-892.6717663388633
 10
566.5406354593908
 20
-892.0974689214721
 10
567.547981379281
 20
-891.4987113261358
 10
570.1159555539831
 20
-893.1868081139081
 10
573.3591684438005
 20
-893.709084589472
 10
576.608582505485
 20
-893.7218314427674
 10
579.929654553269
 20
-893.7342337865143
 10
583.3203175298519
 20
-893.211612801402
 10
586.107399777419
 20
-892.8057805532395
 10
589.0715599329247
 20
-892.6156112824538
 10
591.4348954358094
 20
-891.2179360440879
 10
594.5533958690575
 20
-891.888696135066
 10
595.2258785077782
 20
-891.6640759094278
 10
595.7557341934097
 20
-891.3209443990968
 10
595.706124818422
 20
-890.4848197248267
 10
595.4043344539142
 20
-889.7448132145951
 10
594.9860998620048
 20
-889.227704382259
 10
594.1144907042367
 20
-889.1584579630055
 10
592.6441239511321
 20
-889.7909774940974
 10
590.9842769463355
 20
-889.6035642996998
 10
589.4491423981113
 20
-889.9804577457861
 10
585.5472272515142
 20
-890.8899629538921
 10
581.3931311154031
 20
-891.246874846164
 10
576.9778967415069
 20
-891.4859644728404
 10
574.2404238689275
 20
-891.4628823330892
 10
570.7801699635424
 20
-891.4205076586205
 10
568.871587064714
 20
-889.1133272121488
 10
568.6607472210168
 20
-888.4181069432253
 10
569.2312550333742
 20
-887.4951658627269
 10
569.0038787313476
 20
-886.5067679680087
 10
568.6476558581728
 20
-885.8170598518617
 10
568.0640566829715
 20
-885.360584700066
 10
567.215874174503
 20
-885.5845159066073
 10
566.0528099386794
 20
-886.4247746954597
 10
566.0686573779147
 20
-887.8114256282728
 10
566.1726992615694
 20
-889.0719860663257
 10
564.4983828557379
 20
-891.2358505406112
 10
560.6446990459375
 20
-892.1391545768437
 10
558.9944983085028
 20
-890.461393075527
 10
558.9083709213716
 20
-890.164770354247
 10
558.7430063380796
 20
-889.5825492172398
 10
558.9111269977565
 20
-889.1543238484232
 10
558.9262854178949
 20
-889.1026474161445
 10
558.942132857127
 20
-889.0464923597349
 10
558.9497120671913
 20
-888.9827580932578
 10
559.0358394543258
 20
-888.3326685751912
 10
558.8222435342403
 20
-887.8455320735768
 10
558.2276200534861
 20
-887.634347720331
 10
557.0969397152272
 20
-887.2192137143584
 10
557.1637745676378
 20
-886.711751149381
 10
556.363134376869
 20
-886.0051620653563
 10
555.5397565558942
 20
-885.2468965490528
 10
554.5806419727975
 20
-885.6120766704894
 10
554.008756122246
 20
-886.3717202249869
 10
553.868196226451
 20
-888.4057045994784
 10
552.4315914090986
 20
-890.0727863047908
 10
550.8516706195662
 20
-891.1679821595518
 10
549.8422576423881
 20
-891.5169703322075
 10
548.5772185802043
 20
-891.4015596334517
 10
547.7510846828415
 20
-890.8410425980015
 10
547.4768550822155
 20
-890.6515623463127
 10
547.3803924086285
 20
-890.4421005408096
 10
547.3748802558521
 20
-890.2943059444924
 10
548.6922847694117
 20
-889.9236136702796
 10
549.8732635017553
 20
-889.0278888441145
 10
550.5478131977673
 20
-887.7973007367833
 10
551.3463863312481
 20
-885.6544513449579
 10
549.7974714010799
 20
-883.3672524523006
 10
547.4169104207722
 20
-883.6993596570786
 10
545.2216955775709
 20
-884.0066621743629
 10
544.1392465761055
 20
-885.5562661236282
 10
544.24328845976
 20
-888.2265596342454
 10
543.0361270017253
 20
-888.1762612401608
 10
541.95436701936
 20
-887.7745631065807
 10
540.8326439293595
 20
-887.3232555980129
 10
539.8707732698809
 20
-886.9346488272768
 10
539.6985184956185
 20
-886.0316893005928
 10
538.2977426713159
 20
-886.2931720479232
 10
537.196001135133
 20
-887.4583033410347
 10
537.9683915429259
 20
-888.2238035578572
 10
538.6904835566311
 20
-889.1439885619675
 10
539.4139536085368
 20
-890.061761999238
 10
539.3808806918752
 20
-891.4384221551438
 10
538.2350419334844
 20
-892.0888561827591
 10
536.5924204061172
 20
-892.4781519725923
 10
535.2185163265996
 20
-891.040169117049
 10
534.219438635877
 20
-889.9742565739127
 10
534.232529998721
 20
-889.338636456884
 10
534.2511335143414
 20
-888.1049477636161
 10
534.0878359883405
 20
-887.5613116960437
 10
533.762618974533
 20
-886.470249955865
 10
533.0577524382477
 20
-885.5335284934256
 10
531.763774573991
 20
-885.9658879768245
 10
530.9555551731482
 20
-887.0407577682224
 10
531.2649247477236
 20
-888.3281899510603
 10
531.70796402713
 20
-889.4247638440154
 10
531.3462290011755
 20
-890.5478649722068
 10
530.8115501818647
 20
-891.6430608269677
 10
529.7628631161579
 20
-892.1997882573841
 10
528.5439883334765
 20
-892.4902098067906
 10
526.4218095145626
 20
-892.1987547287385
 10
525.5439991849178
 20
-890.0228324202548
 10
525.5942975790056
 20
-889.7337889090422
 10
525.7279672838301
 20
-888.9114446167131
 10
525.7293453220242
 20
-888.0732528851519
 10
525.7307233602215
 20
-887.5557995432673
 10
525.6824920234247
 20
-886.9959715269142
 10
525.5157494019419
 20
-886.5394963751186
 10
524.9700462770784
 20
-885.0563827687185
 10
522.745892631801
 20
-885.0718856984022
 10
522.747270669992
 20
-887.6226343956812
 10
522.747270669992
 20
-888.2327608061189
 10
522.8382211908025
 20
-888.8446097642992
 10
522.9808481438919
 20
-889.4357881495681
 10
522.096147623283
 20
-891.2530760180374
 10
520.2750701497798
 20
-891.6179116299254
 10
518.9962507056551
 20
-891.3733098504727
 10
517.1186736661939
 20
-890.4152287960246
 10
516.51233686079
 20
-888.37263168282
 10
516.2470645084258
 20
-886.2697453986235
 10
517.5906517476732
 20
-884.4176620657532
 10
518.7233991432201
 20
-882.7950220922005
 10
519.8954206273053
 20
-880.5408961162016
 10
521.2403859047469
 20
-878.0421683607499
 10
521.7612843421166
 20
-877.0203530398247
 10
521.8660152448682
 20
-873.9400931664629
 10
521.5449323456429
 20
-870.1449759799117
 10
516.8768279631295
 20
-871.2288030195713
 10
515.8811953678922
 20
-873.2400497638602
 10
513.5033904639728
 20
-876.9652315120608
 10
513.093424101228
 20
-881.9716442712258
 10
513.5123477122344
 20
-886.2087672085346
 10
513.0458817835316
 20
-887.0851994999822
 10
512.3423932854436
 20
-887.7583711578
 10
511.6492400738113
 20
-888.4515243694323
 10
511.0098303517489
 20
-889.0020506279752
 10
510.486175837991
 20
-889.150878752938
 10
510.1127274873867
 20
-890.0052624332799
 10
510.2987626435934
 20
-890.3501164913534
 10
510.3531951522603
 20
-890.4048935095689
 10
510.7948563934661
 20
-890.6711993905787
 10
512.154980091046
 20
-891.0884004538425
 10
512.9638885109827
 20
-890.2595104800914
 10
513.8306745350715
 20
-889.4285534490491
 10
513.8306745350715
 20
-889.4285534490491
 10
514.2082570002549
 20
-889.0771537095536
 10
514.2082570002549
 20
-889.0771537095536
 10
515.1046708455169
 20
-890.9536972203692
 10
516.4737517913552
 20
-893.1072264081989
 10
518.6799909401092
 20
-893.7207979141219
 10
519.958810384234
 20
-893.9354273628529
 10
521.5077253143991
 20
-893.9271591336883
 10
522.6659664165433
 20
-893.2036890817859
 10
522.6659664165433
 20
-893.2036890817859
 10
524.371977700839
 20
-892.1081487174764
 10
524.371977700839
 20
-892.1081487174764
 10
525.612901094626
 20
-893.5716252796105
 10
527.2238277435288
 20
-894.7477808782749
 10
529.350140677025
 20
-894.5476208305819
 10
530.7522945395217
 20
-894.4869871500414
 10
531.8616152857721
 20
-893.4882539688675
 10
532.7573401119371
 20
-892.5181150802212
 10
532.7573401119371
 20
-892.5181150802212
 10
533.2720373774334
 20
-891.943128643733
 10
533.2720373774334
 20
-891.943128643733
 10
534.6521426288244
 20
-893.3945473716688
 10
536.2596241822421
 20
-894.7474363687263
 10
538.6649898500435
 20
-894.3019855224835
 10
540.1394907177272
 20
-894.1114717421492
 10
540.9242834692703
 20
-893.2973956789847
 10
541.5003034344008
 20
-892.0072074197586
 10
541.7717769586418
 20
-891.3757214173123
 10
541.6932287815781
 20
-890.6870468298109
 10
541.6250158909702
 20
-890.0280000634825
 10
542.6275386771779
 20
-890.2863822248763
 10
543.6672684946262
 20
-890.5003226545103
 10
544.7028641974923
 20
-890.5395967430421
 10
545.057020013376
 20
-891.4553031230216
 10
545.6833383725944
 20
-892.5188040993182
 10
546.6066239626414
 20
-892.9442733917466
 10
548.6054683631834
 20
-893.8651474149539
 10
548.7184674950996
 20
-893.7135632136028
 10
550.5981115918519
 20
-893.6139999540792
 10
552.9972760877798
 20
-893.1685491078364
 10
556.1026851581809
 20
-889.4530136269943
 10
556.1026851581809
 20
-889.4530136269943
 10
556.1026851581809
 20
-889.4530136269943
 10
554.7597869380337
 20
-891.294761673409
 10
556.1026851581809
 20
-889.4530136269943
 97
        0
 97
        0
 92
        1
 93
        1
 72
     4
 94
        3
 73
     0
 74
     1
 95
       56
 96
       52
 40
0.0
 40
0.0
 40
0.0
 40
0.0
 40
1.0
 40
1.0
 40
1.0
 40
2.0
 40
2.0
 40
2.0
 40
3.0
 40
3.0
 40
3.0
 40
4.0
 40
4.0
 40
4.0
 40
5.0
 40
5.0
 40
5.0
 40
6.0
 40
6.0
 40
6.0
 40
7.0
 40
7.0
 40
7.0
 40
8.0
 40
8.0
 40
8.0
 40
9.0
 40
9.0
 40
9.0
 40
10.0
 40
10.0
 40
10.0
 40
11.0
 40
11.0
 40
11.0
 40
12.0
 40
12.0
 40
12.0
 40
13.0
 40
13.0
 40
13.0
 40
14.0
 40
14.0
 40
14.0
 40
15.0
 40
15.0
 40
15.0
 40
16.0
 40
16.0
 40
16.0
 40
17.0
 40
17.0
 40
17.0
 40
17.0
 10
497.5305497561604
 20
-876.0874211824191
 10
497.5305497561604
 20
-876.0874211824191
 10
497.0213646434405
 20
-875.6164766295855
 10
497.0213646434405
 20
-875.6164766295855
 10
497.0213646434405
 20
-875.6164766295855
 10
497.5119462405401
 20
-875.3794540602003
 10
497.5119462405401
 20
-875.3794540602003
 10
498.2829586101358
 20
-875.1320962043593
 10
499.1194277939576
 20
-875.0704289951734
 10
499.5114796601791
 20
-875.9654648022413
 10
499.607253314669
 20
-876.7506020633297
 10
499.2799692435671
 20
-877.2246472021001
 10
498.7239308322478
 20
-877.7138507610056
 10
497.527104660672
 20
-877.8227157783394
 10
496.725086431709
 20
-878.925490843168
 10
495.9850799214773
 20
-879.7519692500794
 10
495.1313852602324
 20
-881.7642495230137
 10
495.8341847392202
 20
-884.1820175345621
 10
496.2524193311327
 20
-886.2087672085346
 10
496.2524193311327
 20
-886.2087672085346
 10
496.5080454161383
 20
-886.4575031025696
 10
496.5080454161383
 20
-886.4575031025696
 10
496.9689991920647
 20
-886.9139782543652
 10
497.3438255808599
 20
-887.3997367177855
 10
497.3107526642015
 20
-888.0966795344515
 10
496.8718474993806
 20
-889.2766247381496
 10
494.5298715885078
 20
-889.8505776459922
 10
494.2804466753757
 20
-887.9667994346576
 10
493.85669993069
 20
-887.2192137143584
 10
493.6865122137187
 20
-886.6766111754315
 10
493.5776471963816
 20
-886.1229843309519
 10
493.5776471963816
 20
-886.1229843309519
 10
493.5011660766122
 20
-885.6861462234222
 10
493.5011660766122
 20
-885.6861462234222
 10
493.3571610853288
 20
-886.7775524731494
 10
493.5321719359762
 20
-888.048448197658
 10
493.7147619966977
 20
-889.1209064222163
 10
494.090966423687
 20
-890.5409747812363
 10
495.0707515796921
 20
-891.625490839993
 10
496.4749724994799
 20
-892.1956541428018
 10
499.6933807018003
 20
-892.9587427927846
 10
502.3481712827306
 20
-890.7600828540982
 10
504.184407176372
 20
-888.3812444215332
 10
507.0762203266875
 20
-884.2516084633642
 10
509.6441945013959
 20
-879.0739744585821
 10
507.3077307432995
 20
-874.0713513044509
 10
504.5192704575383
 20
-870.5821585969899
 10
497.5305497561604
 20
-876.0874211824191
 10
497.5305497561604
 20
-876.0874211824191
 10
497.5305497561604
 20
-876.0874211824191
 10
499.0491478460585
 20
-872.2027315132514
 10
497.5305497561604
 20
-876.0874211824191
 97
        0
 97
        0
 92
        1
 93
        1
 72
     4
 94
        3
 73
     0
 74
     1
 95
       26
 96
       22
 40
0.0
 40
0.0
 40
0.0
 40
0.0
 40
1.0
 40
1.0
 40
1.0
 40
2.0
 40
2.0
 40
2.0
 40
3.0
 40
3.0
 40
3.0
 40
4.0
 40
4.0
 40
4.0
 40
5.0
 40
5.0
 40
5.0
 40
6.0
 40
6.0
 40
6.0
 40
7.0
 40
7.0
 40
7.0
 40
7.0
 10
506.1901417678844
 20
-890.0879447249259
 10
503.9253359958812
 20
-893.1633814646085
 10
500.2356387311754
 20
-895.2128687687836
 10
496.2868702859852
 20
-894.6568303574643
 10
493.5032331339034
 20
-893.9154458090385
 10
491.7014481951177
 20
-891.2110458531174
 10
491.2411834382883
 20
-888.5514321385045
 10
490.6803218932897
 20
-885.0746417747904
 10
491.622900018054
 20
-881.9082545142973
 10
493.4591359116922
 20
-879.2910154741529
 10
494.0096621702351
 20
-875.4893526061798
 10
496.1718040967779
 20
-871.8385849204604
 10
499.9448726722235
 20
-870.1604789095953
 10
502.2971838695521
 20
-869.3023056242196
 10
507.5640458473989
 20
-868.9243786494876
 10
509.3486053087582
 20
-872.7818520643219
 10
512.5883731030904
 20
-878.7566811643907
 10
506.1901417678844
 20
-890.0879447249259
 10
506.1901417678844
 20
-890.0879447249259
 10
506.1901417678844
 20
-890.0879447249259
 10
509.3396480604998
 20
-885.3168319874035
 10
506.1901417678844
 20
-890.0879447249259
 97
        0
 97
        0
 92
        1
 93
        1
 72
     4
 94
        3
 73
     0
 74
     1
 95
       20
 96
       16
 40
0.0
 40
0.0
 40
0.0
 40
0.0
 40
1.0
 40
1.0
 40
1.0
 40
2.0
 40
2.0
 40
2.0
 40
3.0
 40
3.0
 40
3.0
 40
4.0
 40
4.0
 40
4.0
 40
5.0
 40
5.0
 40
5.0
 40
5.0
 10
568.7730573338359
 20
-883.0478921008179
 10
568.926019573381
 20
-882.5828042103092
 10
568.8764101983934
 20
-881.9637205516098
 10
568.5980464831853
 20
-881.5354951827932
 10
567.9958437923635
 20
-880.7775741760382
 10
566.8355356329282
 20
-880.2391057516937
 10
566.115510676511
 20
-881.2323267800912
 10
565.7530866314627
 20
-882.118749848446
 10
566.0245601557036
 20
-883.0010388022184
 10
566.7363168829562
 20
-883.6094426649136
 10
567.4928598515171
 20
-883.7906546874377
 10
568.7730573338359
 20
-883.0478921008179
 10
568.7730573338359
 20
-883.0478921008179
 10
568.7730573338359
 20
-883.0478921008179
 10
568.3548227419234
 20
-883.9718667099619
 10
568.7730573338359
 20
-883.0478921008179
 97
        0
 97
        0
 92
        1
 93
        1
 72
     4
 94
        3
 73
     0
 74
     1
 95
       20
 96
       16
 40
0.0
 40
0.0
 40
0.0
 40
0.0
 40
1.0
 40
1.0
 40
1.0
 40
2.0
 40
2.0
 40
2.0
 40
3.0
 40
3.0
 40
3.0
 40
4.0
 40
4.0
 40
4.0
 40
5.0
 40
5.0
 40
5.0
 40
5.0
 10
525.3345373794145
 20
-881.6281682513464
 10
524.9452415895845
 20
-882.186273719957
 10
523.9840599491998
 20
-882.187651758151
 10
523.4872771802236
 20
-881.9847356340698
 10
522.7686302620037
 20
-881.691558008275
 10
522.0858123368272
 20
-880.7434677307342
 10
522.6122229269733
 20
-879.8267278221093
 10
523.199956216757
 20
-878.8035344629901
 10
524.4195200185354
 20
-879.0846542545864
 10
525.0492834732358
 20
-879.5976289723402
 10
525.4440914158455
 20
-879.9187118715655
 10
525.3345373794145
 20
-881.6281682513464
 10
525.3345373794145
 20
-881.6281682513464
 10
525.3345373794145
 20
-881.6281682513464
 10
525.8602589504669
 20
-880.8764484164649
 10
525.3345373794145
 20
-881.6281682513464
 97
        0
 97
        0
 75
     2
 76
     1
 98
        0
  0
ENDBLK
  5
3F1
330
3EE
100
AcDbEntity
  8
0
100
AcDbBlockEnd
  0
BLOCK
  5
3FC
330
3FA
100
AcDbEntity
  8
0
100
AcDbBlockBegin
  2
block 47
 70
     0
 10
0.0
 20
0.0
 30
0.0
  3
block 47
  1

  0
SPLINE
  5
3FE
330
3FA
100
AcDbEntity
  8
Layer 1
370
     0
100
AcDbSpline
210
0.0
220
0.0
230
1.0
 70
    11
 71
     3
 72
    20
 73
    16
 74
     0
 42
0.0000000001
 43
0.0000000001
 12
1.0
 22
0.0
 32
0.0
 13
1.0
 23
0.0
 33
0.0
 40
0.0
 40
0.0
 40
0.0
 40
0.0
 40
1.0
 40
1.0
 40
1.0
 40
2.0
 40
2.0
 40
2.0
 40
3.0
 40
3.0
 40
3.0
 40
4.0
 40
4.0
 40
4.0
 40
5.0
 40
5.0
 40
5.0
 40
5.0
 10
593.1374616246198
 20
-886.0809541660318
 30
0.0
 10
593.1374616246198
 20
-886.0809541660318
 30
0.0
 10
593.4330508172543
 20
-886.0809541660318
 30
0.0
 10
593.4330508172543
 20
-886.0809541660318
 30
0.0
 10
593.5915252095757
 20
-886.0809541660318
 30
0.0
 10
593.747243525509
 20
-886.1305635410195
 30
0.0
 10
593.747243525509
 20
-886.3038518439275
 30
0.0
 10
593.747243525509
 20
-886.502978362975
 30
0.0
 10
593.6239091071371
 20
-886.5425969610553
 30
0.0
 10
593.4330508172543
 20
-886.5425969610553
 30
0.0
 10
593.4330508172543
 20
-886.5425969610553
 30
0.0
 10
593.1374616246198
 20
-886.5425969610553
 30
0.0
 10
593.1374616246198
 20
-886.5425969610553
 30
0.0
 10
593.1374616246198
 20
-886.5425969610553
 30
0.0
 10
593.1374616246198
 20
-886.0809541660318
 30
0.0
 10
593.1374616246198
 20
-886.0809541660318
 30
0.0
  0
ENDBLK
  5
3FD
330
3FA
100
AcDbEntity
  8
0
100
AcDbBlockEnd
  0
BLOCK
  5
401
330
3FF
100
AcDbEntity
  8
0
100
AcDbBlockBegin
  2
block 48
 70
     0
 10
0.0
 20
0.0
 30
0.0
  3
block 48
  1

  0
SPLINE
  5
403
330
3FF
100
AcDbEntity
  8
Layer 1
370
     0
100
AcDbSpline
210
0.0
220
0.0
230
1.0
 70
    11
 71
     3
 72
    35
 73
    31
 74
     0
 42
0.0000000001
 43
0.0000000001
 12
1.0
 22
0.0
 32
0.0
 13
1.0
 23
0.0
 33
0.0
 40
0.0
 40
0.0
 40
0.0
 40
0.0
 40
1.0
 40
1.0
 40
1.0
 40
2.0
 40
2.0
 40
2.0
 40
3.0
 40
3.0
 40
3.0
 40
4.0
 40
4.0
 40
4.0
 40
5.0
 40
5.0
 40
5.0
 40
6.0
 40
6.0
 40
6.0
 40
7.0
 40
7.0
 40
7.0
 40
8.0
 40
8.0
 40
8.0
 40
9.0
 40
9.0
 40
9.0
 40
10.0
 40
10.0
 40
10.0
 40
10.0
 10
592.8873476923907
 20
-887.4124835710809
 30
0.0
 10
592.8873476923907
 20
-887.4124835710809
 30
0.0
 10
593.1374616246198
 20
-887.4124835710809
 30
0.0
 10
593.1374616246198
 20
-887.4124835710809
 30
0.0
 10
593.1374616246198
 20
-887.4124835710809
 30
0.0
 10
593.1374616246198
 20
-886.7375893655204
 30
0.0
 10
593.1374616246198
 20
-886.7375893655204
 30
0.0
 10
593.1374616246198
 20
-886.7375893655204
 30
0.0
 10
593.3455453919289
 20
-886.7375893655204
 30
0.0
 10
593.3455453919289
 20
-886.7375893655204
 30
0.0
 10
593.3455453919289
 20
-886.7375893655204
 30
0.0
 10
593.7720482130028
 20
-887.4124835710809
 30
0.0
 10
593.7720482130028
 20
-887.4124835710809
 30
0.0
 10
593.7720482130028
 20
-887.4124835710809
 30
0.0
 10
594.035942527173
 20
-887.4124835710809
 30
0.0
 10
594.035942527173
 20
-887.4124835710809
 30
0.0
 10
594.035942527173
 20
-887.4124835710809
 30
0.0
 10
593.6025495151285
 20
-886.7375893655204
 30
0.0
 10
593.6025495151285
 20
-886.7375893655204
 30
0.0
 10
593.8409501227078
 20
-886.7375893655204
 30
0.0
 10
593.9966684386411
 20
-886.5601669480301
 30
0.0
 10
593.9966684386411
 20
-886.3152206590288
 30
0.0
 10
593.9966684386411
 20
-886.0268661669135
 30
0.0
 10
593.8223466070875
 20
-885.8859617615667
 30
0.0
 10
593.4723249057861
 20
-885.8859617615667
 30
0.0
 10
593.4723249057861
 20
-885.8859617615667
 30
0.0
 10
592.8873476923907
 20
-885.8859617615667
 30
0.0
 10
592.8873476923907
 20
-885.8859617615667
 30
0.0
 10
592.8873476923907
 20
-885.8859617615667
 30
0.0
 10
592.8873476923907
 20
-887.4124835710809
 30
0.0
 10
592.8873476923907
 20
-887.4124835710809
 30
0.0
  0
ENDBLK
  5
402
330
3FF
100
AcDbEntity
  8
0
100
AcDbBlockEnd
  0
BLOCK
  5
406
330
404
100
AcDbEntity
  8
0
100
AcDbBlockBegin
  2
block 49
 70
     0
 10
0.0
 20
0.0
 30
0.0
  3
block 49
  1

  0
SPLINE
  5
408
330
404
100
AcDbEntity
  8
Layer 1
370
     0
100
AcDbSpline
210
0.0
220
0.0
230
1.0
 70
    11
 71
     3
 72
    17
 73
    13
 74
     0
 42
0.0000000001
 43
0.0000000001
 12
1.0
 22
0.0
 32
0.0
 13
1.0
 23
0.0
 33
0.0
 40
0.0
 40
0.0
 40
0.0
 40
0.0
 40
1.0
 40
1.0
 40
1.0
 40
2.0
 40
2.0
 40
2.0
 40
3.0
 40
3.0
 40
3.0
 40
4.0
 40
4.0
 40
4.0
 40
4.0
 10
592.3319983001684
 20
-886.6507729592921
 30
0.0
 10
592.3319983001684
 20
-886.0268661669135
 30
0.0
 10
592.7839948278332
 20
-885.5424857416873
 30
0.0
 10
593.3896426141401
 20
-885.5424857416873
 30
0.0
 10
593.9884002094765
 20
-885.5424857416873
 30
0.0
 10
594.4390186989472
 20
-886.0268661669135
 30
0.0
 10
594.4390186989472
 20
-886.6507729592921
 30
0.0
 10
594.4390186989472
 20
-887.2746797516709
 30
0.0
 10
593.9884002094765
 20
-887.7583711578
 30
0.0
 10
593.3896426141401
 20
-887.7583711578
 30
0.0
 10
592.7839948278332
 20
-887.7583711578
 30
0.0
 10
592.3319983001684
 20
-887.2746797516709
 30
0.0
 10
592.3319983001684
 20
-886.6507729592921
 30
0.0
  0
ENDBLK
  5
407
330
404
100
AcDbEntity
  8
0
100
AcDbBlockEnd
  0
BLOCK
  5
40B
330
409
100
AcDbEntity
  8
0
100
AcDbBlockBegin
  2
block 50
 70
     0
 10
0.0
 20
0.0
 30
0.0
  3
block 50
  1

  0
SPLINE
  5
40D
330
409
100
AcDbEntity
  8
Layer 1
370
     0
100
AcDbSpline
210
0.0
220
0.0
230
1.0
 70
    11
 71
     3
 72
    17
 73
    13
 74
     0
 42
0.0000000001
 43
0.0000000001
 12
1.0
 22
0.0
 32
0.0
 13
1.0
 23
0.0
 33
0.0
 40
0.0
 40
0.0
 40
0.0
 40
0.0
 40
1.0
 40
1.0
 40
1.0
 40
2.0
 40
2.0
 40
2.0
 40
3.0
 40
3.0
 40
3.0
 40
4.0
 40
4.0
 40
4.0
 40
4.0
 10
592.0832624061334
 20
-886.6507729592921
 30
0.0
 10
592.0832624061334
 20
-887.3683863488696
 30
0.0
 10
592.6675506004317
 20
-887.9540525813621
 30
0.0
 10
593.3861975186549
 20
-887.9540525813621
 30
0.0
 10
594.1041554177809
 20
-887.9540525813621
 30
0.0
 10
594.6884436120793
 20
-887.3683863488696
 30
0.0
 10
594.6884436120793
 20
-886.6507729592921
 30
0.0
 10
594.6884436120793
 20
-885.9324705506176
 30
0.0
 10
594.1041554177809
 20
-885.3474933372222
 30
0.0
 10
593.3861975186549
 20
-885.3474933372222
 30
0.0
 10
592.6675506004317
 20
-885.3474933372222
 30
0.0
 10
592.0832624061334
 20
-885.9324705506176
 30
0.0
 10
592.0832624061334
 20
-886.6507729592921
 30
0.0
  0
ENDBLK
  5
40C
330
409
100
AcDbEntity
  8
0
100
AcDbBlockEnd
  0
BLOCK
  5
410
330
40E
100
AcDbEntity
  8
0
100
AcDbBlockBegin
  2
block 51
 70
     0
 10
0.0
 20
0.0
 30
0.0
  3
block 51
  1

  0
SPLINE
  5
412
330
40E
100
AcDbEntity
  8
Layer 1
370
     0
100
AcDbSpline
210
0.0
220
0.0
230
1.0
 70
    11
 71
     3
 72
    20
 73
    16
 74
     0
 42
0.0000000001
 43
0.0000000001
 12
1.0
 22
0.0
 32
0.0
 13
1.0
 23
0.0
 33
0.0
 40
0.0
 40
0.0
 40
0.0
 40
0.0
 40
1.0
 40
1.0
 40
1.0
 40
2.0
 40
2.0
 40
2.0
 40
3.0
 40
3.0
 40
3.0
 40
4.0
 40
4.0
 40
4.0
 40
5.0
 40
5.0
 40
5.0
 40
5.0
 10
593.1374616246198
 20
-886.0809541660318
 30
0.0
 10
593.1374616246198
 20
-886.0809541660318
 30
0.0
 10
593.4330508172543
 20
-886.0809541660318
 30
0.0
 10
593.4330508172543
 20
-886.0809541660318
 30
0.0
 10
593.5915252095725
 20
-886.0809541660318
 30
0.0
 10
593.7472435255058
 20
-886.1305635410195
 30
0.0
 10
593.7472435255058
 20
-886.3038518439275
 30
0.0
 10
593.7472435255058
 20
-886.502978362975
 30
0.0
 10
593.6239091071371
 20
-886.5425969610553
 30
0.0
 10
593.4330508172543
 20
-886.5425969610553
 30
0.0
 10
593.4330508172543
 20
-886.5425969610553
 30
0.0
 10
593.1374616246198
 20
-886.5425969610553
 30
0.0
 10
593.1374616246198
 20
-886.5425969610553
 30
0.0
 10
593.1374616246198
 20
-886.5425969610553
 30
0.0
 10
593.1374616246198
 20
-886.0809541660318
 30
0.0
 10
593.1374616246198
 20
-886.0809541660318
 30
0.0
  0
SPLINE
  5
413
330
40E
100
AcDbEntity
  8
Layer 1
370
     0
100
AcDbSpline
210
0.0
220
0.0
230
1.0
 70
    11
 71
     3
 72
    35
 73
    31
 74
     0
 42
0.0000000001
 43
0.0000000001
 12
1.0
 22
0.0
 32
0.0
 13
1.0
 23
0.0
 33
0.0
 40
0.0
 40
0.0
 40
0.0
 40
0.0
 40
1.0
 40
1.0
 40
1.0
 40
2.0
 40
2.0
 40
2.0
 40
3.0
 40
3.0
 40
3.0
 40
4.0
 40
4.0
 40
4.0
 40
5.0
 40
5.0
 40
5.0
 40
6.0
 40
6.0
 40
6.0
 40
7.0
 40
7.0
 40
7.0
 40
8.0
 40
8.0
 40
8.0
 40
9.0
 40
9.0
 40
9.0
 40
10.0
 40
10.0
 40
10.0
 40
10.0
 10
592.8873476923875
 20
-887.4124835710809
 30
0.0
 10
592.8873476923875
 20
-887.4124835710809
 30
0.0
 10
593.1374616246198
 20
-887.4124835710809
 30
0.0
 10
593.1374616246198
 20
-887.4124835710809
 30
0.0
 10
593.1374616246198
 20
-887.4124835710809
 30
0.0
 10
593.1374616246198
 20
-886.7375893655204
 30
0.0
 10
593.1374616246198
 20
-886.7375893655204
 30
0.0
 10
593.1374616246198
 20
-886.7375893655204
 30
0.0
 10
593.3455453919289
 20
-886.7375893655204
 30
0.0
 10
593.3455453919289
 20
-886.7375893655204
 30
0.0
 10
593.3455453919289
 20
-886.7375893655204
 30
0.0
 10
593.7720482130028
 20
-887.4124835710809
 30
0.0
 10
593.7720482130028
 20
-887.4124835710809
 30
0.0
 10
593.7720482130028
 20
-887.4124835710809
 30
0.0
 10
594.035942527173
 20
-887.4124835710809
 30
0.0
 10
594.035942527173
 20
-887.4124835710809
 30
0.0
 10
594.035942527173
 20
-887.4124835710809
 30
0.0
 10
593.6025495151285
 20
-886.7375893655204
 30
0.0
 10
593.6025495151285
 20
-886.7375893655204
 30
0.0
 10
593.8409501227078
 20
-886.7375893655204
 30
0.0
 10
593.9966684386379
 20
-886.5601669480301
 30
0.0
 10
593.9966684386379
 20
-886.3152206590288
 30
0.0
 10
593.9966684386379
 20
-886.0268661669135
 30
0.0
 10
593.8223466070875
 20
-885.8859617615667
 30
0.0
 10
593.4723249057861
 20
-885.8859617615667
 30
0.0
 10
593.4723249057861
 20
-885.8859617615667
 30
0.0
 10
592.8873476923875
 20
-885.8859617615667
 30
0.0
 10
592.8873476923875
 20
-885.8859617615667
 30
0.0
 10
592.8873476923875
 20
-885.8859617615667
 30
0.0
 10
592.8873476923875
 20
-887.4124835710809
 30
0.0
 10
592.8873476923875
 20
-887.4124835710809
 30
0.0
  0
SPLINE
  5
414
330
40E
100
AcDbEntity
  8
Layer 1
370
     0
100
AcDbSpline
210
0.0
220
0.0
230
1.0
 70
    11
 71
     3
 72
    20
 73
    16
 74
     0
 42
0.0000000001
 43
0.0000000001
 12
1.0
 22
0.0
 32
0.0
 13
1.0
 23
0.0
 33
0.0
 40
0.0
 40
0.0
 40
0.0
 40
0.0
 40
1.0
 40
1.0
 40
1.0
 40
2.0
 40
2.0
 40
2.0
 40
3.0
 40
3.0
 40
3.0
 40
4.0
 40
4.0
 40
4.0
 40
5.0
 40
5.0
 40
5.0
 40
5.0
 10
592.3319983001684
 20
-886.6507729592921
 30
0.0
 10
592.3319983001684
 20
-886.0268661669135
 30
0.0
 10
592.7839948278332
 20
-885.5424857416873
 30
0.0
 10
593.3896426141401
 20
-885.5424857416873
 30
0.0
 10
593.9884002094733
 20
-885.5424857416873
 30
0.0
 10
594.439018698944
 20
-886.0268661669135
 30
0.0
 10
594.439018698944
 20
-886.6507729592921
 30
0.0
 10
594.439018698944
 20
-887.2746797516709
 30
0.0
 10
593.9884002094733
 20
-887.7583711578
 30
0.0
 10
593.3896426141401
 20
-887.7583711578
 30
0.0
 10
592.7839948278332
 20
-887.7583711578
 30
0.0
 10
592.3319983001684
 20
-886.6507729592921
 30
0.0
 10
592.3319983001684
 20
-886.6507729592921
 30
0.0
 10
592.3319983001684
 20
-886.6507729592921
 30
0.0
 10
592.3319983001684
 20
-887.2746797516709
 30
0.0
 10
592.3319983001684
 20
-886.6507729592921
 30
0.0
  0
SPLINE
  5
415
330
40E
100
AcDbEntity
  8
Layer 1
370
     0
100
AcDbSpline
210
0.0
220
0.0
230
1.0
 70
    11
 71
     3
 72
    20
 73
    16
 74
     0
 42
0.0000000001
 43
0.0000000001
 12
1.0
 22
0.0
 32
0.0
 13
1.0
 23
0.0
 33
0.0
 40
0.0
 40
0.0
 40
0.0
 40
0.0
 40
1.0
 40
1.0
 40
1.0
 40
2.0
 40
2.0
 40
2.0
 40
3.0
 40
3.0
 40
3.0
 40
4.0
 40
4.0
 40
4.0
 40
5.0
 40
5.0
 40
5.0
 40
5.0
 10
592.0832624061334
 20
-886.6507729592921
 30
0.0
 10
592.0832624061334
 20
-887.3683863488696
 30
0.0
 10
592.6675506004285
 20
-887.9540525813621
 30
0.0
 10
593.3861975186517
 20
-887.9540525813621
 30
0.0
 10
594.1041554177809
 20
-887.9540525813621
 30
0.0
 10
594.6884436120761
 20
-887.3683863488696
 30
0.0
 10
594.6884436120761
 20
-886.6507729592921
 30
0.0
 10
594.6884436120761
 20
-885.9324705506176
 30
0.0
 10
594.1041554177809
 20
-885.3474933372222
 30
0.0
 10
593.3861975186517
 20
-885.3474933372222
 30
0.0
 10
592.6675506004285
 20
-885.3474933372222
 30
0.0
 10
592.0832624061334
 20
-886.6507729592921
 30
0.0
 10
592.0832624061334
 20
-886.6507729592921
 30
0.0
 10
592.0832624061334
 20
-886.6507729592921
 30
0.0
 10
592.0832624061334
 20
-885.9324705506176
 30
0.0
 10
592.0832624061334
 20
-886.6507729592921
 30
0.0
  0
HATCH
  5
416
330
40E
100
AcDbEntity
  8
Layer 1
 62
   152
420
    26316
100
AcDbHatch
 10
0.0
 20
0.0
 30
0.0
210
0.0
220
0.0
230
1.0
  2
SOLID
 70
     1
 71
     0
 91
        4
 92
        1
 93
        1
 72
     4
 94
        3
 73
     0
 74
     1
 95
       20
 96
       16
 40
0.0
 40
0.0
 40
0.0
 40
0.0
 40
1.0
 40
1.0
 40
1.0
 40
2.0
 40
2.0
 40
2.0
 40
3.0
 40
3.0
 40
3.0
 40
4.0
 40
4.0
 40
4.0
 40
5.0
 40
5.0
 40
5.0
 40
5.0
 10
593.1374616246198
 20
-886.0809541660318
 10
593.1374616246198
 20
-886.0809541660318
 10
593.4330508172543
 20
-886.0809541660318
 10
593.4330508172543
 20
-886.0809541660318
 10
593.5915252095725
 20
-886.0809541660318
 10
593.7472435255058
 20
-886.1305635410195
 10
593.7472435255058
 20
-886.3038518439275
 10
593.7472435255058
 20
-886.502978362975
 10
593.6239091071371
 20
-886.5425969610553
 10
593.4330508172543
 20
-886.5425969610553
 10
593.4330508172543
 20
-886.5425969610553
 10
593.1374616246198
 20
-886.5425969610553
 10
593.1374616246198
 20
-886.5425969610553
 10
593.1374616246198
 20
-886.5425969610553
 10
593.1374616246198
 20
-886.0809541660318
 10
593.1374616246198
 20
-886.0809541660318
 97
        0
 97
        0
 92
        1
 93
        1
 72
     4
 94
        3
 73
     0
 74
     1
 95
       35
 96
       31
 40
0.0
 40
0.0
 40
0.0
 40
0.0
 40
1.0
 40
1.0
 40
1.0
 40
2.0
 40
2.0
 40
2.0
 40
3.0
 40
3.0
 40
3.0
 40
4.0
 40
4.0
 40
4.0
 40
5.0
 40
5.0
 40
5.0
 40
6.0
 40
6.0
 40
6.0
 40
7.0
 40
7.0
 40
7.0
 40
8.0
 40
8.0
 40
8.0
 40
9.0
 40
9.0
 40
9.0
 40
10.0
 40
10.0
 40
10.0
 40
10.0
 10
592.8873476923875
 20
-887.4124835710809
 10
592.8873476923875
 20
-887.4124835710809
 10
593.1374616246198
 20
-887.4124835710809
 10
593.1374616246198
 20
-887.4124835710809
 10
593.1374616246198
 20
-887.4124835710809
 10
593.1374616246198
 20
-886.7375893655204
 10
593.1374616246198
 20
-886.7375893655204
 10
593.1374616246198
 20
-886.7375893655204
 10
593.3455453919289
 20
-886.7375893655204
 10
593.3455453919289
 20
-886.7375893655204
 10
593.3455453919289
 20
-886.7375893655204
 10
593.7720482130028
 20
-887.4124835710809
 10
593.7720482130028
 20
-887.4124835710809
 10
593.7720482130028
 20
-887.4124835710809
 10
594.035942527173
 20
-887.4124835710809
 10
594.035942527173
 20
-887.4124835710809
 10
594.035942527173
 20
-887.4124835710809
 10
593.6025495151285
 20
-886.7375893655204
 10
593.6025495151285
 20
-886.7375893655204
 10
593.8409501227078
 20
-886.7375893655204
 10
593.9966684386379
 20
-886.5601669480301
 10
593.9966684386379
 20
-886.3152206590288
 10
593.9966684386379
 20
-886.0268661669135
 10
593.8223466070875
 20
-885.8859617615667
 10
593.4723249057861
 20
-885.8859617615667
 10
593.4723249057861
 20
-885.8859617615667
 10
592.8873476923875
 20
-885.8859617615667
 10
592.8873476923875
 20
-885.8859617615667
 10
592.8873476923875
 20
-885.8859617615667
 10
592.8873476923875
 20
-887.4124835710809
 10
592.8873476923875
 20
-887.4124835710809
 97
        0
 97
        0
 92
        1
 93
        1
 72
     4
 94
        3
 73
     0
 74
     1
 95
       20
 96
       16
 40
0.0
 40
0.0
 40
0.0
 40
0.0
 40
1.0
 40
1.0
 40
1.0
 40
2.0
 40
2.0
 40
2.0
 40
3.0
 40
3.0
 40
3.0
 40
4.0
 40
4.0
 40
4.0
 40
5.0
 40
5.0
 40
5.0
 40
5.0
 10
592.3319983001684
 20
-886.6507729592921
 10
592.3319983001684
 20
-886.0268661669135
 10
592.7839948278332
 20
-885.5424857416873
 10
593.3896426141401
 20
-885.5424857416873
 10
593.9884002094733
 20
-885.5424857416873
 10
594.439018698944
 20
-886.0268661669135
 10
594.439018698944
 20
-886.6507729592921
 10
594.439018698944
 20
-887.2746797516709
 10
593.9884002094733
 20
-887.7583711578
 10
593.3896426141401
 20
-887.7583711578
 10
592.7839948278332
 20
-887.7583711578
 10
592.3319983001684
 20
-886.6507729592921
 10
592.3319983001684
 20
-886.6507729592921
 10
592.3319983001684
 20
-886.6507729592921
 10
592.3319983001684
 20
-887.2746797516709
 10
592.3319983001684
 20
-886.6507729592921
 97
        0
 97
        0
 92
        1
 93
        1
 72
     4
 94
        3
 73
     0
 74
     1
 95
       20
 96
       16
 40
0.0
 40
0.0
 40
0.0
 40
0.0
 40
1.0
 40
1.0
 40
1.0
 40
2.0
 40
2.0
 40
2.0
 40
3.0
 40
3.0
 40
3.0
 40
4.0
 40
4.0
 40
4.0
 40
5.0
 40
5.0
 40
5.0
 40
5.0
 10
592.0832624061334
 20
-886.6507729592921
 10
592.0832624061334
 20
-887.3683863488696
 10
592.6675506004285
 20
-887.9540525813621
 10
593.3861975186517
 20
-887.9540525813621
 10
594.1041554177809
 20
-887.9540525813621
 10
594.6884436120761
 20
-887.3683863488696
 10
594.6884436120761
 20
-886.6507729592921
 10
594.6884436120761
 20
-885.9324705506176
 10
594.1041554177809
 20
-885.3474933372222
 10
593.3861975186517
 20
-885.3474933372222
 10
592.6675506004285
 20
-885.3474933372222
 10
592.0832624061334
 20
-886.6507729592921
 10
592.0832624061334
 20
-886.6507729592921
 10
592.0832624061334
 20
-886.6507729592921
 10
592.0832624061334
 20
-885.9324705506176
 10
592.0832624061334
 20
-886.6507729592921
 97
        0
 97
        0
 75
     2
 76
     1
 98
        0
  0
ENDBLK
  5
411
330
40E
100
AcDbEntity
  8
0
100
AcDbBlockEnd
  0
ENDSEC
  0
SECTION
  2
ENTITIES
  0
POLYLINE
  5
41
330
1F
100
AcDbEntity
  8
Layer 1
 62
     7
420
 16777215
370
    35
100
AcDb2dPolyline
 66
     1
 10
0.0
 20
0.0
 30
0.0
  0
VERTEX
  5
42
330
41
100
AcDbEntity
  8
Layer 1
 62
     7
420
 16777215
370
    35
100
AcDbVertex
100
AcDb2dVertex
 10
-39.30145327617644
 20
-166.8255628031989
 30
0.0
  0
VERTEX
  5
43
330
41
100
AcDbEntity
  8
Layer 1
 62
     7
420
 16777215
370
    35
100
AcDbVertex
100
AcDb2dVertex
 10
-39.30145327617804
 20
208.1742614099402
 30
0.0
  0
SEQEND
  5
44
330
41
100
AcDbEntity
  8
Layer 1
 62
     7
420
 16777215
370
    35
  0
POLYLINE
  5
45
330
1F
100
AcDbEntity
  8
Layer 1
 62
     7
420
 16777215
370
    35
100
AcDb2dPolyline
 66
     1
 10
0.0
 20
0.0
 30
0.0
  0
VERTEX
  5
46
330
45
100
AcDbEntity
  8
Layer 1
 62
     7
420
 16777215
370
    35
100
AcDbVertex
100
AcDb2dVertex
 10
-8.813663950465916
 20
248.4181340157457
 30
0.0
  0
VERTEX
  5
47
330
45
100
AcDbEntity
  8
Layer 1
 62
     7
420
 16777215
370
    35
100
AcDbVertex
100
AcDb2dVertex
 10
-8.813663950465596
 20
-207.0694354090045
 30
0.0
  0
VERTEX
  5
48
330
45
100
AcDbEntity
  8
Layer 1
 62
     7
420
 16777215
370
    35
100
AcDbVertex
100
AcDb2dVertex
 10
-10.64285687692992
 20
-210.1182065881305
 30
0.0
  0
VERTEX
  5
49
330
45
100
AcDbEntity
  8
Layer 1
 62
     7
420
 16777215
370
    35
100
AcDbVertex
100
AcDb2dVertex
 10
-14.30139779877397
 20
-211.9474770490486
 30
0.0
  0
SEQEND
  5
4A
330
45
100
AcDbEntity
  8
Layer 1
 62
     7
420
 16777215
370
    35
  0
POLYLINE
  5
4B
330
1F
100
AcDbEntity
  8
Layer 1
 62
     7
420
 16777215
370
    35
100
AcDb2dPolyline
 66
     1
 10
0.0
 20
0.0
 30
0.0
  0
VERTEX
  5
4C
330
4B
100
AcDbEntity
  8
Layer 1
 62
     7
420
 16777215
370
    35
100
AcDbVertex
100
AcDb2dVertex
 10
-14.30139779877076
 20
253.2962144230195
 30
0.0
  0
VERTEX
  5
4D
330
4B
100
AcDbEntity
  8
Layer 1
 62
     7
420
 16777215
370
    35
100
AcDbVertex
100
AcDb2dVertex
 10
-10.64285687692896
 20
251.4669439620989
 30
0.0
  0
VERTEX
  5
4E
330
4B
100
AcDbEntity
  8
Layer 1
 62
     7
420
 16777215
370
    35
100
AcDbVertex
100
AcDb2dVertex
 10
-8.813663950465916
 20
248.4181340157457
 30
0.0
  0
SEQEND
  5
4F
330
4B
100
AcDbEntity
  8
Layer 1
 62
     7
420
 16777215
370
    35
  0
POLYLINE
  5
50
330
1F
100
AcDbEntity
  8
Layer 1
 62
     7
420
 16777215
370
    35
100
AcDb2dPolyline
 66
     1
 10
0.0
 20
0.0
 30
0.0
  0
VERTEX
  5
51
330
50
100
AcDbEntity
  8
Layer 1
 62
     7
420
 16777215
370
    35
100
AcDbVertex
100
AcDb2dVertex
 10
-53.93546189463113
 20
223.4181560727966
 30
0.0
  0
VERTEX
  5
52
330
50
100
AcDbEntity
  8
Layer 1
 62
     7
420
 16777215
370
    35
100
AcDbVertex
100
AcDb2dVertex
 10
-48.44772804632436
 20
222.1986165873639
 30
0.0
  0
VERTEX
  5
53
330
50
100
AcDbEntity
  8
Layer 1
 62
     7
420
 16777215
370
    35
100
AcDbVertex
100
AcDb2dVertex
 10
-43.5697251735087
 20
218.5400756655208
 30
0.0
  0
VERTEX
  5
54
330
50
100
AcDbEntity
  8
Layer 1
 62
     7
420
 16777215
370
    35
100
AcDbVertex
100
AcDb2dVertex
 10
-39.91118425166594
 20
213.6620727927029
 30
0.0
  0
VERTEX
  5
55
330
50
100
AcDbEntity
  8
Layer 1
 62
     7
420
 16777215
370
    35
100
AcDbVertex
100
AcDb2dVertex
 10
-39.30145327617804
 20
208.1742614099402
 30
0.0
  0
SEQEND
  5
56
330
50
100
AcDbEntity
  8
Layer 1
 62
     7
420
 16777215
370
    35
  0
POLYLINE
  5
57
330
1F
100
AcDbEntity
  8
Layer 1
 62
     7
420
 16777215
370
    35
100
AcDb2dPolyline
 66
     1
 10
0.0
 20
0.0
 30
0.0
  0
VERTEX
  5
58
330
57
100
AcDbEntity
  8
Layer 1
 62
     7
420
 16777215
370
    35
100
AcDbVertex
100
AcDb2dVertex
 10
-394.1793024191873
 20
-166.8255628032009
 30
0.0
  0
VERTEX
  5
59
330
57
100
AcDbEntity
  8
Layer 1
 62
     7
420
 16777215
370
    35
100
AcDbVertex
100
AcDb2dVertex
 10
-394.1793024191911
 20
208.1742614099398
 30
0.0
  0
SEQEND
  5
5A
330
57
100
AcDbEntity
  8
Layer 1
 62
     7
420
 16777215
370
    35
  0
POLYLINE
  5
5B
330
1F
100
AcDbEntity
  8
Layer 1
 62
     7
420
 16777215
370
    35
100
AcDb2dPolyline
 66
     1
 10
0.0
 20
0.0
 30
0.0
  0
VERTEX
  5
5C
330
5B
100
AcDbEntity
  8
Layer 1
 62
     7
420
 16777215
370
    35
100
AcDbVertex
100
AcDb2dVertex
 10
-378.9354077563353
 20
-182.0694574660573
 30
0.0
  0
VERTEX
  5
5D
330
5B
100
AcDbEntity
  8
Layer 1
 62
     7
420
 16777215
370
    35
100
AcDbVertex
100
AcDb2dVertex
 10
-384.4231416046367
 20
-180.8499567478505
 30
0.0
  0
VERTEX
  5
5E
330
5B
100
AcDbEntity
  8
Layer 1
 62
     7
420
 16777215
370
    35
100
AcDbVertex
100
AcDb2dVertex
 10
-389.3011444774543
 20
-177.1914158260125
 30
0.0
  0
VERTEX
  5
5F
330
5B
100
AcDbEntity
  8
Layer 1
 62
     7
420
 16777215
370
    35
100
AcDbVertex
100
AcDb2dVertex
 10
-392.9596853993009
 20
-172.3133741859633
 30
0.0
  0
VERTEX
  5
60
330
5B
100
AcDbEntity
  8
Layer 1
 62
     7
420
 16777215
370
    35
100
AcDbVertex
100
AcDb2dVertex
 10
-394.1793024191873
 20
-166.8255628032009
 30
0.0
  0
SEQEND
  5
61
330
5B
100
AcDbEntity
  8
Layer 1
 62
     7
420
 16777215
370
    35
  0
POLYLINE
  5
62
330
1F
100
AcDbEntity
  8
Layer 1
 62
     7
420
 16777215
370
    35
100
AcDb2dPolyline
 66
     1
 10
0.0
 20
0.0
 30
0.0
  0
VERTEX
  5
63
330
62
100
AcDbEntity
  8
Layer 1
 62
     7
420
 16777215
370
    35
100
AcDbVertex
100
AcDb2dVertex
 10
-753.9351544350163
 20
253.2962144230198
 30
0.0
  0
VERTEX
  5
64
330
62
100
AcDbEntity
  8
Layer 1
 62
     7
420
 16777215
370
    35
100
AcDbVertex
100
AcDb2dVertex
 10
-14.30139779877076
 20
253.2962144230195
 30
0.0
  0
SEQEND
  5
65
330
62
100
AcDbEntity
  8
Layer 1
 62
     7
420
 16777215
370
    35
  0
POLYLINE
  5
66
330
1F
100
AcDbEntity
  8
Layer 1
 62
     7
420
 16777215
370
    35
100
AcDb2dPolyline
 66
     1
 10
0.0
 20
0.0
 30
0.0
  0
VERTEX
  5
67
330
66
100
AcDbEntity
  8
Layer 1
 62
     7
420
 16777215
370
    35
100
AcDbVertex
100
AcDb2dVertex
 10
-378.9354077563353
 20
223.4181560727959
 30
0.0
  0
VERTEX
  5
68
330
66
100
AcDbEntity
  8
Layer 1
 62
     7
420
 16777215
370
    35
100
AcDbVertex
100
AcDb2dVertex
 10
-53.93546189463113
 20
223.4181560727966
 30
0.0
  0
SEQEND
  5
69
330
66
100
AcDbEntity
  8
Layer 1
 62
     7
420
 16777215
370
    35
  0
POLYLINE
  5
6A
330
1F
100
AcDbEntity
  8
Layer 1
 62
     7
420
 16777215
370
    35
100
AcDb2dPolyline
 66
     1
 10
0.0
 20
0.0
 30
0.0
  0
VERTEX
  5
6B
330
6A
100
AcDbEntity
  8
Layer 1
 62
     7
420
 16777215
370
    35
100
AcDbVertex
100
AcDb2dVertex
 10
-8.813663970271316
 20
248.4181339989081
 30
0.0
  0
VERTEX
  5
6C
330
6A
100
AcDbEntity
  8
Layer 1
 62
     7
420
 16777215
370
    35
100
AcDbVertex
100
AcDb2dVertex
 10
-10.03320345556796
 20
251.4669439453178
 30
0.0
  0
VERTEX
  5
6D
330
6A
100
AcDbEntity
  8
Layer 1
 62
     7
420
 16777215
370
    35
100
AcDbVertex
100
AcDb2dVertex
 10
-13.69174437732955
 20
253.2962144064027
 30
0.0
  0
SEQEND
  5
6E
330
6A
100
AcDbEntity
  8
Layer 1
 62
     7
420
 16777215
370
    35
  0
POLYLINE
  5
6F
330
1F
100
AcDbEntity
  8
Layer 1
 62
     7
420
 16777215
370
    35
100
AcDb2dPolyline
 66
     1
 10
0.0
 20
0.0
 30
0.0
  0
VERTEX
  5
70
330
6F
100
AcDbEntity
  8
Layer 1
 62
     7
420
 16777215
370
    35
100
AcDbVertex
100
AcDb2dVertex
 10
-394.1793024191911
 20
208.1742614099398
 30
0.0
  0
VERTEX
  5
71
330
6F
100
AcDbEntity
  8
Layer 1
 62
     7
420
 16777215
370
    35
100
AcDbVertex
100
AcDb2dVertex
 10
-392.959685399297
 20
213.6620727927048
 30
0.0
  0
VERTEX
  5
72
330
6F
100
AcDbEntity
  8
Layer 1
 62
     7
420
 16777215
370
    35
100
AcDbVertex
100
AcDb2dVertex
 10
-389.3011444774578
 20
218.5400756655214
 30
0.0
  0
VERTEX
  5
73
330
6F
100
AcDbEntity
  8
Layer 1
 62
     7
420
 16777215
370
    35
100
AcDbVertex
100
AcDb2dVertex
 10
-384.4231416046367
 20
222.1986165873648
 30
0.0
  0
VERTEX
  5
74
330
6F
100
AcDbEntity
  8
Layer 1
 62
     7
420
 16777215
370
    35
100
AcDbVertex
100
AcDb2dVertex
 10
-378.9354077563353
 20
223.4181560727959
 30
0.0
  0
SEQEND
  5
75
330
6F
100
AcDbEntity
  8
Layer 1
 62
     7
420
 16777215
370
    35
  0
POLYLINE
  5
76
330
1F
100
AcDbEntity
  8
Layer 1
 62
     7
420
 16777215
370
    35
100
AcDb2dPolyline
 66
     1
 10
0.0
 20
0.0
 30
0.0
  0
VERTEX
  5
77
330
76
100
AcDbEntity
  8
Layer 1
 62
     7
420
 16777215
370
    35
100
AcDbVertex
100
AcDb2dVertex
 10
-14.30139779877397
 20
-211.9474770490486
 30
0.0
  0
VERTEX
  5
78
330
76
100
AcDbEntity
  8
Layer 1
 62
     7
420
 16777215
370
    35
100
AcDbVertex
100
AcDb2dVertex
 10
-753.9351544350199
 20
-211.9474770490518
 30
0.0
  0
SEQEND
  5
79
330
76
100
AcDbEntity
  8
Layer 1
 62
     7
420
 16777215
370
    35
  0
POLYLINE
  5
7A
330
1F
100
AcDbEntity
  8
Layer 1
 62
     7
420
 16777215
370
    35
100
AcDb2dPolyline
 66
     1
 10
0.0
 20
0.0
 30
0.0
  0
VERTEX
  5
7B
330
7A
100
AcDbEntity
  8
Layer 1
 62
     7
420
 16777215
370
    35
100
AcDbVertex
100
AcDb2dVertex
 10
-53.93546189462921
 20
-182.0694574660592
 30
0.0
  0
VERTEX
  5
7C
330
7A
100
AcDbEntity
  8
Layer 1
 62
     7
420
 16777215
370
    35
100
AcDbVertex
100
AcDb2dVertex
 10
-378.9354077563353
 20
-182.0694574660573
 30
0.0
  0
SEQEND
  5
7D
330
7A
100
AcDbEntity
  8
Layer 1
 62
     7
420
 16777215
370
    35
  0
POLYLINE
  5
7E
330
1F
100
AcDbEntity
  8
Layer 1
 62
     7
420
 16777215
370
    35
100
AcDb2dPolyline
 66
     1
 10
0.0
 20
0.0
 30
0.0
  0
VERTEX
  5
7F
330
7E
100
AcDbEntity
  8
Layer 1
 62
     7
420
 16777215
370
    35
100
AcDbVertex
100
AcDb2dVertex
 10
-39.30145327617644
 20
-166.8255628031989
 30
0.0
  0
VERTEX
  5
80
330
7E
100
AcDbEntity
  8
Layer 1
 62
     7
420
 16777215
370
    35
100
AcDbVertex
100
AcDb2dVertex
 10
-39.91118425166626
 20
-172.3133741859626
 30
0.0
  0
VERTEX
  5
81
330
7E
100
AcDbEntity
  8
Layer 1
 62
     7
420
 16777215
370
    35
100
AcDbVertex
100
AcDb2dVertex
 10
-43.56972517350646
 20
-177.1914158260106
 30
0.0
  0
VERTEX
  5
82
330
7E
100
AcDbEntity
  8
Layer 1
 62
     7
420
 16777215
370
    35
100
AcDbVertex
100
AcDb2dVertex
 10
-48.44772804632597
 20
-180.8499567478511
 30
0.0
  0
VERTEX
  5
83
330
7E
100
AcDbEntity
  8
Layer 1
 62
     7
420
 16777215
370
    35
100
AcDbVertex
100
AcDb2dVertex
 10
-53.93546189462921
 20
-182.0694574660592
 30
0.0
  0
SEQEND
  5
84
330
7E
100
AcDbEntity
  8
Layer 1
 62
     7
420
 16777215
370
    35
  0
POLYLINE
  5
85
330
1F
100
AcDbEntity
  8
Layer 1
 62
     7
420
 16777215
370
    35
100
AcDb2dPolyline
 66
     1
 10
0.0
 20
0.0
 30
0.0
  0
VERTEX
  5
86
330
85
100
AcDbEntity
  8
Layer 1
 62
     7
420
 16777215
370
    35
100
AcDbVertex
100
AcDb2dVertex
 10
-263.6914462527665
 20
103.2962692308741
 30
0.0
  0
VERTEX
  5
87
330
85
100
AcDbEntity
  8
Layer 1
 62
     7
420
 16777215
370
    35
100
AcDbVertex
100
AcDb2dVertex
 10
-262.4719843017924
 20
113.6620834864541
 30
0.0
  0
VERTEX
  5
88
330
85
100
AcDbEntity
  8
Layer 1
 62
     7
420
 16777215
370
    35
100
AcDbVertex
100
AcDb2dVertex
 10
-258.8134433799524
 20
123.4181667665448
 30
0.0
  0
VERTEX
  5
89
330
85
100
AcDbEntity
  8
Layer 1
 62
     7
420
 16777215
370
    35
100
AcDbVertex
100
AcDb2dVertex
 10
-253.325709531646
 20
132.5645190711477
 30
0.0
  0
VERTEX
  5
8A
330
85
100
AcDbEntity
  8
Layer 1
 62
     7
420
 16777215
370
    35
100
AcDbVertex
100
AcDb2dVertex
 10
-246.0086276879637
 20
139.881600914832
 30
0.0
  0
VERTEX
  5
8B
330
85
100
AcDbEntity
  8
Layer 1
 62
     7
420
 16777215
370
    35
100
AcDbVertex
100
AcDb2dVertex
 10
-236.8621978488981
 20
145.9791432730829
 30
0.0
  0
VERTEX
  5
8C
330
85
100
AcDbEntity
  8
Layer 1
 62
     7
420
 16777215
370
    35
100
AcDbVertex
100
AcDb2dVertex
 10
-227.1061921032633
 20
149.0279532194381
 30
0.0
  0
VERTEX
  5
8D
330
85
100
AcDbEntity
  8
Layer 1
 62
     7
420
 16777215
370
    35
100
AcDbVertex
100
AcDb2dVertex
 10
-216.7403003132267
 20
150.2474151704158
 30
0.0
  0
VERTEX
  5
8E
330
85
100
AcDbEntity
  8
Layer 1
 62
     7
420
 16777215
370
    35
100
AcDbVertex
100
AcDb2dVertex
 10
-205.7646775476997
 20
149.0279532194374
 30
0.0
  0
VERTEX
  5
8F
330
85
100
AcDbEntity
  8
Layer 1
 62
     7
420
 16777215
370
    35
100
AcDbVertex
100
AcDb2dVertex
 10
-196.0086718020639
 20
145.9791432730835
 30
0.0
  0
VERTEX
  5
90
330
85
100
AcDbEntity
  8
Layer 1
 62
     7
420
 16777215
370
    35
100
AcDbVertex
100
AcDb2dVertex
 10
-186.8622419630025
 20
139.8816009148339
 30
0.0
  0
VERTEX
  5
91
330
85
100
AcDbEntity
  8
Layer 1
 62
     7
420
 16777215
370
    35
100
AcDbVertex
100
AcDb2dVertex
 10
-179.5451601193166
 20
132.564519071149
 30
0.0
  0
VERTEX
  5
92
330
85
100
AcDbEntity
  8
Layer 1
 62
     7
420
 16777215
370
    35
100
AcDbVertex
100
AcDb2dVertex
 10
-174.0574262710134
 20
123.4181667665423
 30
0.0
  0
VERTEX
  5
93
330
85
100
AcDbEntity
  8
Layer 1
 62
     7
420
 16777215
370
    35
100
AcDbVertex
100
AcDb2dVertex
 10
-170.3988853491709
 20
113.6620834864521
 30
0.0
  0
VERTEX
  5
94
330
85
100
AcDbEntity
  8
Layer 1
 62
     7
420
 16777215
370
    35
100
AcDbVertex
100
AcDb2dVertex
 10
-169.1794233981958
 20
103.2962692308722
 30
0.0
  0
VERTEX
  5
95
330
85
100
AcDbEntity
  8
Layer 1
 62
     7
420
 16777215
370
    35
100
AcDbVertex
100
AcDb2dVertex
 10
-170.3988853491706
 20
92.930377440834
 30
0.0
  0
VERTEX
  5
96
330
85
100
AcDbEntity
  8
Layer 1
 62
     7
420
 16777215
370
    35
100
AcDbVertex
100
AcDb2dVertex
 10
-174.0574262710131
 20
82.56456318525082
 30
0.0
  0
VERTEX
  5
97
330
85
100
AcDbEntity
  8
Layer 1
 62
     7
420
 16777215
370
    35
100
AcDbVertex
100
AcDb2dVertex
 10
-179.5451601193192
 20
73.41821088064664
 30
0.0
  0
VERTEX
  5
98
330
85
100
AcDbEntity
  8
Layer 1
 62
     7
420
 16777215
370
    35
100
AcDbVertex
100
AcDb2dVertex
 10
-186.8622419630022
 20
66.10116780419277
 30
0.0
  0
VERTEX
  5
99
330
85
100
AcDbEntity
  8
Layer 1
 62
     7
420
 16777215
370
    35
100
AcDbVertex
100
AcDb2dVertex
 10
-196.0086718020652
 20
60.61335642142846
 30
0.0
  0
VERTEX
  5
9A
330
85
100
AcDbEntity
  8
Layer 1
 62
     7
420
 16777215
370
    35
100
AcDbVertex
100
AcDb2dVertex
 10
-205.7646775476984
 20
56.95481549958665
 30
0.0
  0
VERTEX
  5
9B
330
85
100
AcDbEntity
  8
Layer 1
 62
     7
420
 16777215
370
    35
100
AcDbVertex
100
AcDb2dVertex
 10
-216.7403003132261
 20
55.73531478138499
 30
0.0
  0
VERTEX
  5
9C
330
85
100
AcDbEntity
  8
Layer 1
 62
     7
420
 16777215
370
    35
100
AcDbVertex
100
AcDb2dVertex
 10
-227.1061921032623
 20
56.9548154995873
 30
0.0
  0
VERTEX
  5
9D
330
85
100
AcDbEntity
  8
Layer 1
 62
     7
420
 16777215
370
    35
100
AcDbVertex
100
AcDb2dVertex
 10
-236.8621978488956
 20
60.6133564214291
 30
0.0
  0
VERTEX
  5
9E
330
85
100
AcDbEntity
  8
Layer 1
 62
     7
420
 16777215
370
    35
100
AcDbVertex
100
AcDb2dVertex
 10
-246.0086276879595
 20
66.10116780419084
 30
0.0
  0
VERTEX
  5
9F
330
85
100
AcDbEntity
  8
Layer 1
 62
     7
420
 16777215
370
    35
100
AcDbVertex
100
AcDb2dVertex
 10
-253.3257095316451
 20
73.41821088064664
 30
0.0
  0
VERTEX
  5
A0
330
85
100
AcDbEntity
  8
Layer 1
 62
     7
420
 16777215
370
    35
100
AcDbVertex
100
AcDb2dVertex
 10
-258.8134433799524
 20
82.5645631852521
 30
0.0
  0
VERTEX
  5
A1
330
85
100
AcDbEntity
  8
Layer 1
 62
     7
420
 16777215
370
    35
100
AcDbVertex
100
AcDb2dVertex
 10
-262.471984301792
 20
92.93037744083593
 30
0.0
  0
VERTEX
  5
A2
330
85
100
AcDbEntity
  8
Layer 1
 62
     7
420
 16777215
370
    35
100
AcDbVertex
100
AcDb2dVertex
 10
-263.6914462527665
 20
103.2962692308741
 30
0.0
  0
SEQEND
  5
A3
330
85
100
AcDbEntity
  8
Layer 1
 62
     7
420
 16777215
370
    35
  0
POLYLINE
  5
A4
330
1F
100
AcDbEntity
  8
Layer 1
 62
     7
420
 16777215
370
    35
100
AcDb2dPolyline
 66
     1
 10
0.0
 20
0.0
 30
0.0
  0
VERTEX
  5
A5
330
A4
100
AcDbEntity
  8
Layer 1
 62
     7
420
 16777215
370
    35
100
AcDbVertex
100
AcDb2dVertex
 10
-272.8378760918302
 20
103.2962692308728
 30
0.0
  0
VERTEX
  5
A6
330
A4
100
AcDbEntity
  8
Layer 1
 62
     7
420
 16777215
370
    35
100
AcDbVertex
100
AcDb2dVertex
 10
-272.2281451163439
 20
114.2718919963995
 30
0.0
  0
VERTEX
  5
A7
330
A4
100
AcDbEntity
  8
Layer 1
 62
     7
420
 16777215
370
    35
100
AcDbVertex
100
AcDb2dVertex
 10
-268.5696041945011
 20
124.6377062519769
 30
0.0
  0
VERTEX
  5
A8
330
A4
100
AcDbEntity
  8
Layer 1
 62
     7
420
 16777215
370
    35
100
AcDbVertex
100
AcDb2dVertex
 10
-263.6914462527675
 20
134.3937895320722
 30
0.0
  0
VERTEX
  5
A9
330
A4
100
AcDbEntity
  8
Layer 1
 62
     7
420
 16777215
370
    35
100
AcDbVertex
100
AcDb2dVertex
 10
-256.3743644090829
 20
142.9304108611898
 30
0.0
  0
VERTEX
  5
AA
330
A4
100
AcDbEntity
  8
Layer 1
 62
     7
420
 16777215
370
    35
100
AcDbVertex
100
AcDb2dVertex
 10
-247.8378206144255
 20
150.2474151704158
 30
0.0
  0
VERTEX
  5
AB
330
A4
100
AcDbEntity
  8
Layer 1
 62
     7
420
 16777215
370
    35
100
AcDbVertex
100
AcDb2dVertex
 10
-238.08181486879
 20
155.1254955776877
 30
0.0
  0
VERTEX
  5
AC
330
A4
100
AcDbEntity
  8
Layer 1
 62
     7
420
 16777215
370
    35
100
AcDbVertex
100
AcDb2dVertex
 10
-227.7159230787534
 20
158.7840364995305
 30
0.0
  0
VERTEX
  5
AD
330
A4
100
AcDbEntity
  8
Layer 1
 62
     7
420
 16777215
370
    35
100
AcDbVertex
100
AcDb2dVertex
 10
-216.7403003132225
 20
160.0035759849661
 30
0.0
  0
VERTEX
  5
AE
330
A4
100
AcDbEntity
  8
Layer 1
 62
     7
420
 16777215
370
    35
100
AcDbVertex
100
AcDb2dVertex
 10
-205.7646775476991
 20
158.7840364995299
 30
0.0
  0
VERTEX
  5
AF
330
A4
100
AcDbEntity
  8
Layer 1
 62
     7
420
 16777215
370
    35
100
AcDbVertex
100
AcDb2dVertex
 10
-194.7890547821756
 20
155.1254955776897
 30
0.0
  0
VERTEX
  5
B0
330
A4
100
AcDbEntity
  8
Layer 1
 62
     7
420
 16777215
370
    35
100
AcDbVertex
100
AcDb2dVertex
 10
-185.0330490365369
 20
150.2474151704158
 30
0.0
  0
VERTEX
  5
B1
330
A4
100
AcDbEntity
  8
Layer 1
 62
     7
420
 16777215
370
    35
100
AcDbVertex
100
AcDb2dVertex
 10
-176.4965052418807
 20
142.9304108611891
 30
0.0
  0
VERTEX
  5
B2
330
A4
100
AcDbEntity
  8
Layer 1
 62
     7
420
 16777215
370
    35
100
AcDbVertex
100
AcDb2dVertex
 10
-169.1794233981936
 20
134.3937895320715
 30
0.0
  0
VERTEX
  5
B3
330
A4
100
AcDbEntity
  8
Layer 1
 62
     7
420
 16777215
370
    35
100
AcDbVertex
100
AcDb2dVertex
 10
-164.3012654564609
 20
124.6377062519775
 30
0.0
  0
VERTEX
  5
B4
330
A4
100
AcDbEntity
  8
Layer 1
 62
     7
420
 16777215
370
    35
100
AcDbVertex
100
AcDb2dVertex
 10
-161.2526105790237
 20
114.2718919963982
 30
0.0
  0
VERTEX
  5
B5
330
A4
100
AcDbEntity
  8
Layer 1
 62
     7
420
 16777215
370
    35
100
AcDbVertex
100
AcDb2dVertex
 10
-160.0329935591325
 20
103.2962692308734
 30
0.0
  0
VERTEX
  5
B6
330
A4
100
AcDbEntity
  8
Layer 1
 62
     7
420
 16777215
370
    35
100
AcDbVertex
100
AcDb2dVertex
 10
-161.2526105790249
 20
92.32064646534738
 30
0.0
  0
VERTEX
  5
B7
330
A4
100
AcDbEntity
  8
Layer 1
 62
     7
420
 16777215
370
    35
100
AcDbVertex
100
AcDb2dVertex
 10
-164.3012654564609
 20
81.34506246704787
 30
0.0
  0
VERTEX
  5
B8
330
A4
100
AcDbEntity
  8
Layer 1
 62
     7
420
 16777215
370
    35
100
AcDbVertex
100
AcDb2dVertex
 10
-169.1794233981977
 20
71.58894041972798
 30
0.0
  0
VERTEX
  5
B9
330
A4
100
AcDbEntity
  8
Layer 1
 62
     7
420
 16777215
370
    35
100
AcDbVertex
100
AcDb2dVertex
 10
-176.4965052418791
 20
63.05235785784014
 30
0.0
  0
VERTEX
  5
BA
330
A4
100
AcDbEntity
  8
Layer 1
 62
     7
420
 16777215
370
    35
100
AcDbVertex
100
AcDb2dVertex
 10
-185.0330490365372
 20
56.34504575687224
 30
0.0
  0
VERTEX
  5
BB
330
A4
100
AcDbEntity
  8
Layer 1
 62
     7
420
 16777215
370
    35
100
AcDbVertex
100
AcDb2dVertex
 10
-194.7890547821721
 20
50.85727314133702
 30
0.0
  0
VERTEX
  5
BC
330
A4
100
AcDbEntity
  8
Layer 1
 62
     7
420
 16777215
370
    35
100
AcDbVertex
100
AcDb2dVertex
 10
-205.7646775477004
 20
47.80846319498119
 30
0.0
  0
VERTEX
  5
BD
330
A4
100
AcDbEntity
  8
Layer 1
 62
     7
420
 16777215
370
    35
100
AcDbVertex
100
AcDb2dVertex
 10
-216.7403003132277
 20
46.58896247677951
 30
0.0
  0
VERTEX
  5
BE
330
A4
100
AcDbEntity
  8
Layer 1
 62
     7
420
 16777215
370
    35
100
AcDbVertex
100
AcDb2dVertex
 10
-227.7159230787512
 20
47.80846319498247
 30
0.0
  0
VERTEX
  5
BF
330
A4
100
AcDbEntity
  8
Layer 1
 62
     7
420
 16777215
370
    35
100
AcDbVertex
100
AcDb2dVertex
 10
-238.0818148687896
 20
50.85727314134023
 30
0.0
  0
VERTEX
  5
C0
330
A4
100
AcDbEntity
  8
Layer 1
 62
     7
420
 16777215
370
    35
100
AcDbVertex
100
AcDb2dVertex
 10
-247.8378206144219
 20
56.34504575687288
 30
0.0
  0
VERTEX
  5
C1
330
A4
100
AcDbEntity
  8
Layer 1
 62
     7
420
 16777215
370
    35
100
AcDbVertex
100
AcDb2dVertex
 10
-256.3743644090845
 20
63.0523578578395
 30
0.0
  0
VERTEX
  5
C2
330
A4
100
AcDbEntity
  8
Layer 1
 62
     7
420
 16777215
370
    35
100
AcDbVertex
100
AcDb2dVertex
 10
-263.6914462527687
 20
71.58894041972862
 30
0.0
  0
VERTEX
  5
C3
330
A4
100
AcDbEntity
  8
Layer 1
 62
     7
420
 16777215
370
    35
100
AcDbVertex
100
AcDb2dVertex
 10
-268.5696041945011
 20
81.34506246704723
 30
0.0
  0
VERTEX
  5
C4
330
A4
100
AcDbEntity
  8
Layer 1
 62
     7
420
 16777215
370
    35
100
AcDbVertex
100
AcDb2dVertex
 10
-272.2281451163452
 20
92.32064646534738
 30
0.0
  0
VERTEX
  5
C5
330
A4
100
AcDbEntity
  8
Layer 1
 62
     7
420
 16777215
370
    35
100
AcDbVertex
100
AcDb2dVertex
 10
-272.8378760918302
 20
103.2962692308728
 30
0.0
  0
SEQEND
  5
C6
330
A4
100
AcDbEntity
  8
Layer 1
 62
     7
420
 16777215
370
    35
  0
POLYLINE
  5
C7
330
1F
100
AcDbEntity
  8
Layer 1
 62
     7
420
 16777215
370
    25
100
AcDb2dPolyline
 66
     1
 10
0.0
 20
0.0
 30
0.0
  0
VERTEX
  5
C8
330
C7
100
AcDbEntity
  8
Layer 1
 62
     7
420
 16777215
370
    25
100
AcDbVertex
100
AcDb2dVertex
 10
-383.8134106291529
 20
-171.7036044432456
 30
0.0
  0
VERTEX
  5
C9
330
C7
100
AcDbEntity
  8
Layer 1
 62
     7
420
 16777215
370
    25
100
AcDbVertex
100
AcDb2dVertex
 10
-246.0086276879621
 20
55.12554503866479
 30
0.0
  0
SEQEND
  5
CA
330
C7
100
AcDbEntity
  8
Layer 1
 62
     7
420
 16777215
370
    25
  0
POLYLINE
  5
CB
330
1F
100
AcDbEntity
  8
Layer 1
 62
     7
420
 16777215
370
    25
100
AcDb2dPolyline
 66
     1
 10
0.0
 20
0.0
 30
0.0
  0
VERTEX
  5
CC
330
CB
100
AcDbEntity
  8
Layer 1
 62
     7
420
 16777215
370
    25
100
AcDbVertex
100
AcDb2dVertex
 10
-186.8622419630012
 20
55.12554503866671
 30
0.0
  0
VERTEX
  5
CD
330
CB
100
AcDbEntity
  8
Layer 1
 62
     7
420
 16777215
370
    25
100
AcDbVertex
100
AcDb2dVertex
 10
-49.05745902181515
 20
-171.7036044432463
 30
0.0
  0
SEQEND
  5
CE
330
CB
100
AcDbEntity
  8
Layer 1
 62
     7
420
 16777215
370
    25
  0
POLYLINE
  5
CF
330
1F
100
AcDbEntity
  8
Layer 1
 62
     7
420
 16777215
370
    25
100
AcDb2dPolyline
 66
     1
 10
0.0
 20
0.0
 30
0.0
  0
VERTEX
  5
D0
330
CF
100
AcDbEntity
  8
Layer 1
 62
     7
420
 16777215
370
    25
100
AcDbVertex
100
AcDb2dVertex
 10
-383.8134106291459
 20
213.0522642827571
 30
0.0
  0
VERTEX
  5
D1
330
CF
100
AcDbEntity
  8
Layer 1
 62
     7
420
 16777215
370
    25
100
AcDbVertex
100
AcDb2dVertex
 10
-263.6914462527675
 20
134.3937895320722
 30
0.0
  0
SEQEND
  5
D2
330
CF
100
AcDbEntity
  8
Layer 1
 62
     7
420
 16777215
370
    25
  0
POLYLINE
  5
D3
330
1F
100
AcDbEntity
  8
Layer 1
 62
     7
420
 16777215
370
    25
100
AcDb2dPolyline
 66
     1
 10
0.0
 20
0.0
 30
0.0
  0
VERTEX
  5
D4
330
D3
100
AcDbEntity
  8
Layer 1
 62
     7
420
 16777215
370
    25
100
AcDbVertex
100
AcDb2dVertex
 10
-169.1794233981936
 20
134.3937895320715
 30
0.0
  0
VERTEX
  5
D5
330
D3
100
AcDbEntity
  8
Layer 1
 62
     7
420
 16777215
370
    25
100
AcDbVertex
100
AcDb2dVertex
 10
-49.0574590218129
 20
213.0522642827594
 30
0.0
  0
SEQEND
  5
D6
330
D3
100
AcDbEntity
  8
Layer 1
 62
     7
420
 16777215
370
    25
  0
POLYLINE
  5
D7
330
1F
100
AcDbEntity
  8
Layer 1
 62
     7
420
 16777215
370
    35
100
AcDb2dPolyline
 66
     1
 10
0.0
 20
0.0
 30
0.0
  0
VERTEX
  5
D8
330
D7
100
AcDbEntity
  8
Layer 1
 62
     7
420
 16777215
370
    35
100
AcDbVertex
100
AcDb2dVertex
 10
-428.9353636422291
 20
148.4181447094914
 30
0.0
  0
VERTEX
  5
D9
330
D7
100
AcDbEntity
  8
Layer 1
 62
     7
420
 16777215
370
    35
100
AcDbVertex
100
AcDb2dVertex
 10
-428.9353636422291
 20
-166.8255628032022
 30
0.0
  0
VERTEX
  5
DA
330
D7
100
AcDbEntity
  8
Layer 1
 62
     7
420
 16777215
370
    35
100
AcDbVertex
100
AcDb2dVertex
 10
-430.1548255932071
 20
-172.313374185962
 30
0.0
  0
VERTEX
  5
DB
330
D7
100
AcDbEntity
  8
Layer 1
 62
     7
420
 16777215
370
    35
100
AcDbVertex
100
AcDb2dVertex
 10
-433.2036355395594
 20
-177.1914158260099
 30
0.0
  0
VERTEX
  5
DC
330
D7
100
AcDbEntity
  8
Layer 1
 62
     7
420
 16777215
370
    35
100
AcDbVertex
100
AcDb2dVertex
 10
-438.081638412377
 20
-180.8499567478543
 30
0.0
  0
VERTEX
  5
DD
330
D7
100
AcDbEntity
  8
Layer 1
 62
     7
420
 16777215
370
    35
100
AcDbVertex
100
AcDb2dVertex
 10
-444.1792583050848
 20
-182.0694574660579
 30
0.0
  0
SEQEND
  5
DE
330
D7
100
AcDbEntity
  8
Layer 1
 62
     7
420
 16777215
370
    35
  0
POLYLINE
  5
DF
330
1F
100
AcDbEntity
  8
Layer 1
 62
     7
420
 16777215
370
    35
100
AcDb2dPolyline
 66
     1
 10
0.0
 20
0.0
 30
0.0
  0
VERTEX
  5
E0
330
DF
100
AcDbEntity
  8
Layer 1
 62
     7
420
 16777215
370
    35
100
AcDbVertex
100
AcDb2dVertex
 10
-758.8132348422934
 20
248.4181340157447
 30
0.0
  0
VERTEX
  5
E1
330
DF
100
AcDbEntity
  8
Layer 1
 62
     7
420
 16777215
370
    35
100
AcDbVertex
100
AcDb2dVertex
 10
-758.8132348422934
 20
-207.0694354090031
 30
0.0
  0
SEQEND
  5
E2
330
DF
100
AcDbEntity
  8
Layer 1
 62
     7
420
 16777215
370
    35
  0
POLYLINE
  5
E3
330
1F
100
AcDbEntity
  8
Layer 1
 62
     7
420
 16777215
370
    35
100
AcDb2dPolyline
 66
     1
 10
0.0
 20
0.0
 30
0.0
  0
VERTEX
  5
E4
330
E3
100
AcDbEntity
  8
Layer 1
 62
     7
420
 16777215
370
    35
100
AcDbVertex
100
AcDb2dVertex
 10
-728.9351764920694
 20
148.418144709494
 30
0.0
  0
VERTEX
  5
E5
330
E3
100
AcDbEntity
  8
Layer 1
 62
     7
420
 16777215
370
    35
100
AcDbVertex
100
AcDb2dVertex
 10
-728.9351764920694
 20
-166.8255628031996
 30
0.0
  0
SEQEND
  5
E6
330
E3
100
AcDbEntity
  8
Layer 1
 62
     7
420
 16777215
370
    35
  0
POLYLINE
  5
E7
330
1F
100
AcDbEntity
  8
Layer 1
 62
     7
420
 16777215
370
    35
100
AcDb2dPolyline
 66
     1
 10
0.0
 20
0.0
 30
0.0
  0
VERTEX
  5
E8
330
E7
100
AcDbEntity
  8
Layer 1
 62
     7
420
 16777215
370
    35
100
AcDbVertex
100
AcDb2dVertex
 10
-13.69174439821429
 20
-211.9474770656692
 30
0.0
  0
VERTEX
  5
E9
330
E7
100
AcDbEntity
  8
Layer 1
 62
     7
420
 16777215
370
    35
100
AcDbVertex
100
AcDb2dVertex
 10
-10.03320347629356
 20
-210.1182066049142
 30
0.0
  0
VERTEX
  5
EA
330
E7
100
AcDbEntity
  8
Layer 1
 62
     7
420
 16777215
370
    35
100
AcDbVertex
100
AcDb2dVertex
 10
-8.813663990722263
 20
-207.0694354258394
 30
0.0
  0
SEQEND
  5
EB
330
E7
100
AcDbEntity
  8
Layer 1
 62
     7
420
 16777215
370
    35
  0
POLYLINE
  5
EC
330
1F
100
AcDbEntity
  8
Layer 1
 62
     7
420
 16777215
370
    35
100
AcDb2dPolyline
 66
     1
 10
0.0
 20
0.0
 30
0.0
  0
VERTEX
  5
ED
330
EC
100
AcDbEntity
  8
Layer 1
 62
     7
420
 16777215
370
    35
100
AcDbVertex
100
AcDb2dVertex
 10
-728.9351764920694
 20
148.418144709494
 30
0.0
  0
VERTEX
  5
EE
330
EC
100
AcDbEntity
  8
Layer 1
 62
     7
420
 16777215
370
    35
100
AcDbVertex
100
AcDb2dVertex
 10
-727.7156370066386
 20
153.9059560922573
 30
0.0
  0
VERTEX
  5
EF
330
EC
100
AcDbEntity
  8
Layer 1
 62
     7
420
 16777215
370
    35
100
AcDbVertex
100
AcDb2dVertex
 10
-724.6669045947391
 20
158.7840364995302
 30
0.0
  0
VERTEX
  5
F0
330
EC
100
AcDbEntity
  8
Layer 1
 62
     7
420
 16777215
370
    35
100
AcDbVertex
100
AcDb2dVertex
 10
-719.7888241874653
 20
161.8328464458866
 30
0.0
  0
VERTEX
  5
F1
330
EC
100
AcDbEntity
  8
Layer 1
 62
     7
420
 16777215
370
    35
100
AcDbVertex
100
AcDb2dVertex
 10
-713.6912818292137
 20
163.0523083968618
 30
0.0
  0
VERTEX
  5
F2
330
EC
100
AcDbEntity
  8
Layer 1
 62
     7
420
 16777215
370
    35
100
AcDbVertex
100
AcDb2dVertex
 10
-444.1792583050884
 20
163.0523083968602
 30
0.0
  0
VERTEX
  5
F3
330
EC
100
AcDbEntity
  8
Layer 1
 62
     7
420
 16777215
370
    35
100
AcDbVertex
100
AcDb2dVertex
 10
-438.081638412377
 20
161.8328464458844
 30
0.0
  0
VERTEX
  5
F4
330
EC
100
AcDbEntity
  8
Layer 1
 62
     7
420
 16777215
370
    35
100
AcDbVertex
100
AcDb2dVertex
 10
-433.2036355395594
 20
158.7840364995327
 30
0.0
  0
VERTEX
  5
F5
330
EC
100
AcDbEntity
  8
Layer 1
 62
     7
420
 16777215
370
    35
100
AcDbVertex
100
AcDb2dVertex
 10
-430.1548255932071
 20
153.9059560922592
 30
0.0
  0
VERTEX
  5
F6
330
EC
100
AcDbEntity
  8
Layer 1
 62
     7
420
 16777215
370
    35
100
AcDbVertex
100
AcDb2dVertex
 10
-428.9353636422291
 20
148.4181447094914
 30
0.0
  0
SEQEND
  5
F7
330
EC
100
AcDbEntity
  8
Layer 1
 62
     7
420
 16777215
370
    35
  0
POLYLINE
  5
F8
330
1F
100
AcDbEntity
  8
Layer 1
 62
     7
420
 16777215
370
    35
100
AcDb2dPolyline
 66
     1
 10
0.0
 20
0.0
 30
0.0
  0
VERTEX
  5
F9
330
F8
100
AcDbEntity
  8
Layer 1
 62
     7
420
 16777215
370
    35
100
AcDbVertex
100
AcDb2dVertex
 10
-444.1792583050848
 20
-182.0694574660579
 30
0.0
  0
VERTEX
  5
FA
330
F8
100
AcDbEntity
  8
Layer 1
 62
     7
420
 16777215
370
    35
100
AcDbVertex
100
AcDb2dVertex
 10
-713.6912818292137
 20
-182.0694574660566
 30
0.0
  0
VERTEX
  5
FB
330
F8
100
AcDbEntity
  8
Layer 1
 62
     7
420
 16777215
370
    35
100
AcDbVertex
100
AcDb2dVertex
 10
-719.7888241874653
 20
-180.8499567478505
 30
0.0
  0
VERTEX
  5
FC
330
F8
100
AcDbEntity
  8
Layer 1
 62
     7
420
 16777215
370
    35
100
AcDbVertex
100
AcDb2dVertex
 10
-724.6669045947356
 20
-177.1914158260112
 30
0.0
  0
VERTEX
  5
FD
330
F8
100
AcDbEntity
  8
Layer 1
 62
     7
420
 16777215
370
    35
100
AcDbVertex
100
AcDb2dVertex
 10
-727.7156370066351
 20
-172.3133741859626
 30
0.0
  0
VERTEX
  5
FE
330
F8
100
AcDbEntity
  8
Layer 1
 62
     7
420
 16777215
370
    35
100
AcDbVertex
100
AcDb2dVertex
 10
-728.9351764920694
 20
-166.8255628031996
 30
0.0
  0
SEQEND
  5
FF
330
F8
100
AcDbEntity
  8
Layer 1
 62
     7
420
 16777215
370
    35
  0
POLYLINE
  5
100
330
1F
100
AcDbEntity
  8
Layer 1
 62
     7
420
 16777215
370
    35
100
AcDb2dPolyline
 66
     1
 10
0.0
 20
0.0
 30
0.0
  0
VERTEX
  5
101
330
100
100
AcDbEntity
  8
Layer 1
 62
     7
420
 16777215
370
    35
100
AcDbVertex
100
AcDb2dVertex
 10
-626.4961857494096
 20
42.93042155493579
 30
0.0
  0
VERTEX
  5
102
330
100
100
AcDbEntity
  8
Layer 1
 62
     7
420
 16777215
370
    35
100
AcDbVertex
100
AcDb2dVertex
 10
-625.2767237984316
 20
53.90604432046248
 30
0.0
  0
VERTEX
  5
103
330
100
100
AcDbEntity
  8
Layer 1
 62
     7
420
 16777215
370
    35
100
AcDbVertex
100
AcDb2dVertex
 10
-621.6181828765888
 20
63.66212760055328
 30
0.0
  0
VERTEX
  5
104
330
100
100
AcDbEntity
  8
Layer 1
 62
     7
420
 16777215
370
    35
100
AcDbVertex
100
AcDb2dVertex
 10
-616.1303714938277
 20
72.8084799051613
 30
0.0
  0
VERTEX
  5
105
330
100
100
AcDbEntity
  8
Layer 1
 62
     7
420
 16777215
370
    35
100
AcDbVertex
100
AcDb2dVertex
 10
-608.2035586746542
 20
80.12552298161646
 30
0.0
  0
VERTEX
  5
106
330
100
100
AcDbEntity
  8
Layer 1
 62
     7
420
 16777215
370
    35
100
AcDbVertex
100
AcDb2dVertex
 10
-599.666937345538
 20
85.61333436437948
 30
0.0
  0
VERTEX
  5
107
330
100
100
AcDbEntity
  8
Layer 1
 62
     7
420
 16777215
370
    35
100
AcDbVertex
100
AcDb2dVertex
 10
-589.3011230899593
 20
89.27183651899027
 30
0.0
  0
VERTEX
  5
108
330
100
100
AcDbEntity
  8
Layer 1
 62
     7
420
 16777215
370
    35
100
AcDbVertex
100
AcDb2dVertex
 10
-578.9352312999212
 20
90.49137600442488
 30
0.0
  0
VERTEX
  5
109
330
100
100
AcDbEntity
  8
Layer 1
 62
     7
420
 16777215
370
    35
100
AcDbVertex
100
AcDb2dVertex
 10
-568.5694170443393
 20
89.27183651899284
 30
0.0
  0
VERTEX
  5
10A
330
100
100
AcDbEntity
  8
Layer 1
 62
     7
420
 16777215
370
    35
100
AcDbVertex
100
AcDb2dVertex
 10
-558.2035252543011
 20
85.61333436438012
 30
0.0
  0
VERTEX
  5
10B
330
100
100
AcDbEntity
  8
Layer 1
 62
     7
420
 16777215
370
    35
100
AcDbVertex
100
AcDb2dVertex
 10
-549.6669814596439
 20
80.1255229816139
 30
0.0
  0
VERTEX
  5
10C
330
100
100
AcDbEntity
  8
Layer 1
 62
     7
420
 16777215
370
    35
100
AcDbVertex
100
AcDb2dVertex
 10
-541.7401686404709
 20
72.8084799051581
 30
0.0
  0
VERTEX
  5
10D
330
100
100
AcDbEntity
  8
Layer 1
 62
     7
420
 16777215
370
    35
100
AcDbVertex
100
AcDb2dVertex
 10
-536.2523572577062
 20
63.66212760055712
 30
0.0
  0
VERTEX
  5
10E
330
100
100
AcDbEntity
  8
Layer 1
 62
     7
420
 16777215
370
    35
100
AcDbVertex
100
AcDb2dVertex
 10
-532.5938163358635
 20
53.9060443204612
 30
0.0
  0
VERTEX
  5
10F
330
100
100
AcDbEntity
  8
Layer 1
 62
     7
420
 16777215
370
    35
100
AcDbVertex
100
AcDb2dVertex
 10
-531.9840853603794
 20
42.93042155493579
 30
0.0
  0
VERTEX
  5
110
330
100
100
AcDbEntity
  8
Layer 1
 62
     7
420
 16777215
370
    35
100
AcDbVertex
100
AcDb2dVertex
 10
-532.5938163358667
 20
32.56456853212673
 30
0.0
  0
VERTEX
  5
111
330
100
100
AcDbEntity
  8
Layer 1
 62
     7
420
 16777215
370
    35
100
AcDbVertex
100
AcDb2dVertex
 10
-536.2523572577062
 20
22.80848525203593
 30
0.0
  0
VERTEX
  5
112
330
100
100
AcDbEntity
  8
Layer 1
 62
     7
420
 16777215
370
    35
100
AcDbVertex
100
AcDb2dVertex
 10
-541.740168640467
 20
13.66217171465571
 30
0.0
  0
VERTEX
  5
113
330
100
100
AcDbEntity
  8
Layer 1
 62
     7
420
 16777215
370
    35
100
AcDbVertex
100
AcDb2dVertex
 10
-549.6669814596404
 20
6.345089870972745
 30
0.0
  0
VERTEX
  5
114
330
100
100
AcDbEntity
  8
Layer 1
 62
     7
420
 16777215
370
    35
100
AcDbVertex
100
AcDb2dVertex
 10
-558.2035252543011
 20
0.8572784882142138
 30
0.0
  0
VERTEX
  5
115
330
100
100
AcDbEntity
  8
Layer 1
 62
     7
420
 16777215
370
    35
100
AcDbVertex
100
AcDb2dVertex
 10
-568.5694170443393
 20
-2.801262433629513
 30
0.0
  0
VERTEX
  5
116
330
100
100
AcDbEntity
  8
Layer 1
 62
     7
420
 16777215
370
    35
100
AcDbVertex
100
AcDb2dVertex
 10
-578.9352312999212
 20
-4.020763151835675
 30
0.0
  0
VERTEX
  5
117
330
100
100
AcDbEntity
  8
Layer 1
 62
     7
420
 16777215
370
    35
100
AcDbVertex
100
AcDb2dVertex
 10
-589.3011230899558
 20
-2.80126243363208
 30
0.0
  0
VERTEX
  5
118
330
100
100
AcDbEntity
  8
Layer 1
 62
     7
420
 16777215
370
    35
100
AcDbVertex
100
AcDb2dVertex
 10
-599.666937345538
 20
0.8572784882122887
 30
0.0
  0
VERTEX
  5
119
330
100
100
AcDbEntity
  8
Layer 1
 62
     7
420
 16777215
370
    35
100
AcDbVertex
100
AcDb2dVertex
 10
-608.2035586746542
 20
6.345089870976595
 30
0.0
  0
VERTEX
  5
11A
330
100
100
AcDbEntity
  8
Layer 1
 62
     7
420
 16777215
370
    35
100
AcDbVertex
100
AcDb2dVertex
 10
-616.1303714938242
 20
13.6621717146602
 30
0.0
  0
VERTEX
  5
11B
330
100
100
AcDbEntity
  8
Layer 1
 62
     7
420
 16777215
370
    35
100
AcDbVertex
100
AcDb2dVertex
 10
-621.6181828765888
 20
22.80848525203209
 30
0.0
  0
VERTEX
  5
11C
330
100
100
AcDbEntity
  8
Layer 1
 62
     7
420
 16777215
370
    35
100
AcDbVertex
100
AcDb2dVertex
 10
-625.2767237984351
 20
32.56456853212801
 30
0.0
  0
VERTEX
  5
11D
330
100
100
AcDbEntity
  8
Layer 1
 62
     7
420
 16777215
370
    35
100
AcDbVertex
100
AcDb2dVertex
 10
-626.4961857494096
 20
42.93042155493579
 30
0.0
  0
SEQEND
  5
11E
330
100
100
AcDbEntity
  8
Layer 1
 62
     7
420
 16777215
370
    35
  0
POLYLINE
  5
11F
330
1F
100
AcDbEntity
  8
Layer 1
 62
     7
420
 16777215
370
    35
100
AcDb2dPolyline
 66
     1
 10
0.0
 20
0.0
 30
0.0
  0
VERTEX
  5
120
330
11F
100
AcDbEntity
  8
Layer 1
 62
     7
420
 16777215
370
    35
100
AcDbVertex
100
AcDb2dVertex
 10
-635.6425380540138
 20
42.93042155493579
 30
0.0
  0
VERTEX
  5
121
330
11F
100
AcDbEntity
  8
Layer 1
 62
     7
420
 16777215
370
    35
100
AcDbVertex
100
AcDb2dVertex
 10
-634.4229985685795
 20
53.90604432046248
 30
0.0
  0
VERTEX
  5
122
330
11F
100
AcDbEntity
  8
Layer 1
 62
     7
420
 16777215
370
    35
100
AcDbVertex
100
AcDb2dVertex
 10
-631.3742661566835
 20
64.881628318762
 30
0.0
  0
VERTEX
  5
123
330
11F
100
AcDbEntity
  8
Layer 1
 62
     7
420
 16777215
370
    35
100
AcDbVertex
100
AcDb2dVertex
 10
-625.8864547739223
 20
74.63775036608125
 30
0.0
  0
VERTEX
  5
124
330
11F
100
AcDbEntity
  8
Layer 1
 62
     7
420
 16777215
370
    35
100
AcDbVertex
100
AcDb2dVertex
 10
-619.1791039057273
 20
83.17429416073935
 30
0.0
  0
VERTEX
  5
125
330
11F
100
AcDbEntity
  8
Layer 1
 62
     7
420
 16777215
370
    35
100
AcDbVertex
100
AcDb2dVertex
 10
-610.6425601110666
 20
90.49137600442488
 30
0.0
  0
VERTEX
  5
126
330
11F
100
AcDbEntity
  8
Layer 1
 62
     7
420
 16777215
370
    35
100
AcDbVertex
100
AcDb2dVertex
 10
-600.8864768309719
 20
95.3694564117013
 30
0.0
  0
VERTEX
  5
127
330
11F
100
AcDbEntity
  8
Layer 1
 62
     7
420
 16777215
370
    35
100
AcDbVertex
100
AcDb2dVertex
 10
-589.9108540654465
 20
98.41818882359895
 30
0.0
  0
VERTEX
  5
128
330
11F
100
AcDbEntity
  8
Layer 1
 62
     7
420
 16777215
370
    35
100
AcDbVertex
100
AcDb2dVertex
 10
-578.9352312999212
 20
99.63772830902907
 30
0.0
  0
VERTEX
  5
129
330
11F
100
AcDbEntity
  8
Layer 1
 62
     7
420
 16777215
370
    35
100
AcDbVertex
100
AcDb2dVertex
 10
-567.9596085343958
 20
98.41818882359766
 30
0.0
  0
VERTEX
  5
12A
330
11F
100
AcDbEntity
  8
Layer 1
 62
     7
420
 16777215
370
    35
100
AcDbVertex
100
AcDb2dVertex
 10
-557.5937942788138
 20
95.36945641169808
 30
0.0
  0
VERTEX
  5
12B
330
11F
100
AcDbEntity
  8
Layer 1
 62
     7
420
 16777215
370
    35
100
AcDbVertex
100
AcDb2dVertex
 10
-547.8377109987224
 20
90.4913760044236
 30
0.0
  0
VERTEX
  5
12C
330
11F
100
AcDbEntity
  8
Layer 1
 62
     7
420
 16777215
370
    35
100
AcDbVertex
100
AcDb2dVertex
 10
-538.6914362285745
 20
83.17429416073999
 30
0.0
  0
VERTEX
  5
12D
330
11F
100
AcDbEntity
  8
Layer 1
 62
     7
420
 16777215
370
    35
100
AcDbVertex
100
AcDb2dVertex
 10
-531.9840853603794
 20
74.63775036607996
 30
0.0
  0
VERTEX
  5
12E
330
11F
100
AcDbEntity
  8
Layer 1
 62
     7
420
 16777215
370
    35
100
AcDbVertex
100
AcDb2dVertex
 10
-526.4961964431589
 20
64.881628318762
 30
0.0
  0
VERTEX
  5
12F
330
11F
100
AcDbEntity
  8
Layer 1
 62
     7
420
 16777215
370
    35
100
AcDbVertex
100
AcDb2dVertex
 10
-523.4475415657155
 20
53.90604432046248
 30
0.0
  0
VERTEX
  5
130
330
11F
100
AcDbEntity
  8
Layer 1
 62
     7
420
 16777215
370
    35
100
AcDbVertex
100
AcDb2dVertex
 10
-522.2279245458288
 20
42.93042155493643
 30
0.0
  0
VERTEX
  5
131
330
11F
100
AcDbEntity
  8
Layer 1
 62
     7
420
 16777215
370
    35
100
AcDbVertex
100
AcDb2dVertex
 10
-523.4475415657188
 20
31.95483755663883
 30
0.0
  0
VERTEX
  5
132
330
11F
100
AcDbEntity
  8
Layer 1
 62
     7
420
 16777215
370
    35
100
AcDbVertex
100
AcDb2dVertex
 10
-526.4961964431557
 20
21.58898453383234
 30
0.0
  0
VERTEX
  5
133
330
11F
100
AcDbEntity
  8
Layer 1
 62
     7
420
 16777215
370
    35
100
AcDbVertex
100
AcDb2dVertex
 10
-531.9840853603794
 20
11.83290125373641
 30
0.0
  0
VERTEX
  5
134
330
11F
100
AcDbEntity
  8
Layer 1
 62
     7
420
 16777215
370
    35
100
AcDbVertex
100
AcDb2dVertex
 10
-538.6914362285745
 20
3.296318691849212
 30
0.0
  0
VERTEX
  5
135
330
11F
100
AcDbEntity
  8
Layer 1
 62
     7
420
 16777215
370
    35
100
AcDbVertex
100
AcDb2dVertex
 10
-547.8377109987224
 20
-4.020763151835675
 30
0.0
  0
VERTEX
  5
136
330
11F
100
AcDbEntity
  8
Layer 1
 62
     7
420
 16777215
370
    35
100
AcDbVertex
100
AcDb2dVertex
 10
-557.5937942788138
 20
-8.898804791882997
 30
0.0
  0
VERTEX
  5
137
330
11F
100
AcDbEntity
  8
Layer 1
 62
     7
420
 16777215
370
    35
100
AcDbVertex
100
AcDb2dVertex
 10
-567.9596085343958
 20
-12.55734571372223
 30
0.0
  0
VERTEX
  5
138
330
11F
100
AcDbEntity
  8
Layer 1
 62
     7
420
 16777215
370
    35
100
AcDbVertex
100
AcDb2dVertex
 10
-578.9352312999212
 20
-13.16711545643986
 30
0.0
  0
VERTEX
  5
139
330
11F
100
AcDbEntity
  8
Layer 1
 62
     7
420
 16777215
370
    35
100
AcDbVertex
100
AcDb2dVertex
 10
-589.9108540654465
 20
-12.55734571372095
 30
0.0
  0
VERTEX
  5
13A
330
11F
100
AcDbEntity
  8
Layer 1
 62
     7
420
 16777215
370
    35
100
AcDbVertex
100
AcDb2dVertex
 10
-600.8864768309719
 20
-8.898804791879789
 30
0.0
  0
VERTEX
  5
13B
330
11F
100
AcDbEntity
  8
Layer 1
 62
     7
420
 16777215
370
    35
100
AcDbVertex
100
AcDb2dVertex
 10
-610.6425601110666
 20
-4.020763151835675
 30
0.0
  0
VERTEX
  5
13C
330
11F
100
AcDbEntity
  8
Layer 1
 62
     7
420
 16777215
370
    35
100
AcDbVertex
100
AcDb2dVertex
 10
-619.1791039057238
 20
3.29631869184857
 30
0.0
  0
VERTEX
  5
13D
330
11F
100
AcDbEntity
  8
Layer 1
 62
     7
420
 16777215
370
    35
100
AcDbVertex
100
AcDb2dVertex
 10
-625.8864547739223
 20
11.83290125373769
 30
0.0
  0
VERTEX
  5
13E
330
11F
100
AcDbEntity
  8
Layer 1
 62
     7
420
 16777215
370
    35
100
AcDbVertex
100
AcDb2dVertex
 10
-631.3742661566835
 20
21.58898453383234
 30
0.0
  0
VERTEX
  5
13F
330
11F
100
AcDbEntity
  8
Layer 1
 62
     7
420
 16777215
370
    35
100
AcDbVertex
100
AcDb2dVertex
 10
-634.4229985685795
 20
31.95483755663883
 30
0.0
  0
VERTEX
  5
140
330
11F
100
AcDbEntity
  8
Layer 1
 62
     7
420
 16777215
370
    35
100
AcDbVertex
100
AcDb2dVertex
 10
-635.6425380540138
 20
42.93042155493579
 30
0.0
  0
SEQEND
  5
141
330
11F
100
AcDbEntity
  8
Layer 1
 62
     7
420
 16777215
370
    35
  0
POLYLINE
  5
142
330
1F
100
AcDbEntity
  8
Layer 1
 62
     7
420
 16777215
370
    25
100
AcDb2dPolyline
 66
     1
 10
0.0
 20
0.0
 30
0.0
  0
VERTEX
  5
143
330
142
100
AcDbEntity
  8
Layer 1
 62
     7
420
 16777215
370
    25
100
AcDbVertex
100
AcDb2dVertex
 10
-719.179093211978
 20
-171.7036044432456
 30
0.0
  0
VERTEX
  5
144
330
142
100
AcDbEntity
  8
Layer 1
 62
     7
420
 16777215
370
    25
100
AcDbVertex
100
AcDb2dVertex
 10
-608.2035586746581
 20
-5.240263870037346
 30
0.0
  0
SEQEND
  5
145
330
142
100
AcDbEntity
  8
Layer 1
 62
     7
420
 16777215
370
    25
  0
POLYLINE
  5
146
330
1F
100
AcDbEntity
  8
Layer 1
 62
     7
420
 16777215
370
    25
100
AcDb2dPolyline
 66
     1
 10
0.0
 20
0.0
 30
0.0
  0
VERTEX
  5
147
330
146
100
AcDbEntity
  8
Layer 1
 62
     7
420
 16777215
370
    25
100
AcDbVertex
100
AcDb2dVertex
 10
-549.6669814596439
 20
-5.240263870041196
 30
0.0
  0
VERTEX
  5
148
330
146
100
AcDbEntity
  8
Layer 1
 62
     7
420
 16777215
370
    25
100
AcDbVertex
100
AcDb2dVertex
 10
-438.6913693878678
 20
-171.7036044432456
 30
0.0
  0
SEQEND
  5
149
330
146
100
AcDbEntity
  8
Layer 1
 62
     7
420
 16777215
370
    25
  0
POLYLINE
  5
14A
330
1F
100
AcDbEntity
  8
Layer 1
 62
     7
420
 16777215
370
    25
100
AcDb2dPolyline
 66
     1
 10
0.0
 20
0.0
 30
0.0
  0
VERTEX
  5
14B
330
14A
100
AcDbEntity
  8
Layer 1
 62
     7
420
 16777215
370
    25
100
AcDbVertex
100
AcDb2dVertex
 10
-719.179093211978
 20
153.29622511677
 30
0.0
  0
VERTEX
  5
14C
330
14A
100
AcDbEntity
  8
Layer 1
 62
     7
420
 16777215
370
    25
100
AcDbVertex
100
AcDb2dVertex
 10
-626.4961857494096
 20
74.02798062336362
 30
0.0
  0
SEQEND
  5
14D
330
14A
100
AcDbEntity
  8
Layer 1
 62
     7
420
 16777215
370
    25
  0
POLYLINE
  5
14E
330
1F
100
AcDbEntity
  8
Layer 1
 62
     7
420
 16777215
370
    25
100
AcDb2dPolyline
 66
     1
 10
0.0
 20
0.0
 30
0.0
  0
VERTEX
  5
14F
330
14E
100
AcDbEntity
  8
Layer 1
 62
     7
420
 16777215
370
    25
100
AcDbVertex
100
AcDb2dVertex
 10
-531.9840853603794
 20
74.02798062336362
 30
0.0
  0
VERTEX
  5
150
330
14E
100
AcDbEntity
  8
Layer 1
 62
     7
420
 16777215
370
    25
100
AcDbVertex
100
AcDb2dVertex
 10
-438.6913693878643
 20
153.2962251167707
 30
0.0
  0
SEQEND
  5
151
330
14E
100
AcDbEntity
  8
Layer 1
 62
     7
420
 16777215
370
    25
  0
POLYLINE
  5
152
330
1F
100
AcDbEntity
  8
Layer 1
 62
     7
420
 16777215
370
    35
100
AcDb2dPolyline
 66
     1
 10
0.0
 20
0.0
 30
0.0
  0
VERTEX
  5
153
330
152
100
AcDbEntity
  8
Layer 1
 62
     7
420
 16777215
370
    35
100
AcDbVertex
100
AcDb2dVertex
 10
-476.4962405572616
 20
203.2961810026653
 30
0.0
  0
VERTEX
  5
154
330
152
100
AcDbEntity
  8
Layer 1
 62
     7
420
 16777215
370
    35
100
AcDbVertex
100
AcDb2dVertex
 10
-475.2767786062871
 20
210.0035318708607
 30
0.0
  0
VERTEX
  5
155
330
152
100
AcDbEntity
  8
Layer 1
 62
     7
420
 16777215
370
    35
100
AcDbVertex
100
AcDb2dVertex
 10
-471.6182376844405
 20
215.4913432536235
 30
0.0
  0
VERTEX
  5
156
330
152
100
AcDbEntity
  8
Layer 1
 62
     7
420
 16777215
370
    35
100
AcDbVertex
100
AcDb2dVertex
 10
-465.5206177917362
 20
219.1498841754672
 30
0.0
  0
VERTEX
  5
157
330
152
100
AcDbEntity
  8
Layer 1
 62
     7
420
 16777215
370
    35
100
AcDbVertex
100
AcDb2dVertex
 10
-458.8134219924533
 20
220.9791546363865
 30
0.0
  0
VERTEX
  5
158
330
152
100
AcDbEntity
  8
Layer 1
 62
     7
420
 16777215
370
    35
100
AcDbVertex
100
AcDb2dVertex
 10
-452.1060711242579
 20
219.1498841754649
 30
0.0
  0
VERTEX
  5
159
330
152
100
AcDbEntity
  8
Layer 1
 62
     7
420
 16777215
370
    35
100
AcDbVertex
100
AcDb2dVertex
 10
-446.6181822070377
 20
215.4913432536238
 30
0.0
  0
VERTEX
  5
15A
330
152
100
AcDbEntity
  8
Layer 1
 62
     7
420
 16777215
370
    35
100
AcDbVertex
100
AcDb2dVertex
 10
-442.9596412851946
 20
210.0035318708607
 30
0.0
  0
VERTEX
  5
15B
330
152
100
AcDbEntity
  8
Layer 1
 62
     7
420
 16777215
370
    35
100
AcDbVertex
100
AcDb2dVertex
 10
-441.7401793342201
 20
203.296181002666
 30
0.0
  0
VERTEX
  5
15C
330
152
100
AcDbEntity
  8
Layer 1
 62
     7
420
 16777215
370
    35
100
AcDbVertex
100
AcDb2dVertex
 10
-442.9596412851946
 20
196.5889076689269
 30
0.0
  0
VERTEX
  5
15D
330
152
100
AcDbEntity
  8
Layer 1
 62
     7
420
 16777215
370
    35
100
AcDbVertex
100
AcDb2dVertex
 10
-446.6181822070338
 20
191.1010962861635
 30
0.0
  0
VERTEX
  5
15E
330
152
100
AcDbEntity
  8
Layer 1
 62
     7
420
 16777215
370
    35
100
AcDbVertex
100
AcDb2dVertex
 10
-452.1060711242579
 20
186.8328243888332
 30
0.0
  0
VERTEX
  5
15F
330
152
100
AcDbEntity
  8
Layer 1
 62
     7
420
 16777215
370
    35
100
AcDbVertex
100
AcDb2dVertex
 10
-458.8134219924565
 20
185.6132849034002
 30
0.0
  0
VERTEX
  5
160
330
152
100
AcDbEntity
  8
Layer 1
 62
     7
420
 16777215
370
    35
100
AcDbVertex
100
AcDb2dVertex
 10
-465.5206177917362
 20
186.8328243888351
 30
0.0
  0
VERTEX
  5
161
330
152
100
AcDbEntity
  8
Layer 1
 62
     7
420
 16777215
370
    35
100
AcDbVertex
100
AcDb2dVertex
 10
-471.6182376844405
 20
191.1010962861626
 30
0.0
  0
VERTEX
  5
162
330
152
100
AcDbEntity
  8
Layer 1
 62
     7
420
 16777215
370
    35
100
AcDbVertex
100
AcDb2dVertex
 10
-475.2767786062836
 20
196.5889076689259
 30
0.0
  0
VERTEX
  5
163
330
152
100
AcDbEntity
  8
Layer 1
 62
     7
420
 16777215
370
    35
100
AcDbVertex
100
AcDb2dVertex
 10
-476.4962405572616
 20
203.2961810026653
 30
0.0
  0
SEQEND
  5
164
330
152
100
AcDbEntity
  8
Layer 1
 62
     7
420
 16777215
370
    35
  0
POLYLINE
  5
165
330
1F
100
AcDbEntity
  8
Layer 1
 62
     7
420
 16777215
370
    35
100
AcDb2dPolyline
 66
     1
 10
0.0
 20
0.0
 30
0.0
  0
VERTEX
  5
166
330
165
100
AcDbEntity
  8
Layer 1
 62
     7
420
 16777215
370
    35
100
AcDbVertex
100
AcDb2dVertex
 10
-378.9354078087051
 20
-693.0862367530152
 30
0.0
  0
VERTEX
  5
167
330
165
100
AcDbEntity
  8
Layer 1
 62
     7
420
 16777215
370
    35
100
AcDbVertex
100
AcDb2dVertex
 10
-53.93546194700051
 20
-693.0862367530152
 30
0.0
  0
SEQEND
  5
168
330
165
100
AcDbEntity
  8
Layer 1
 62
     7
420
 16777215
370
    35
  0
POLYLINE
  5
169
330
1F
100
AcDbEntity
  8
Layer 1
 62
     7
420
 16777215
370
    35
100
AcDb2dPolyline
 66
     1
 10
0.0
 20
0.0
 30
0.0
  0
VERTEX
  5
16A
330
169
100
AcDbEntity
  8
Layer 1
 62
     7
420
 16777215
370
    35
100
AcDbVertex
100
AcDb2dVertex
 10
-378.9354078087051
 20
-694.3057762384459
 30
0.0
  0
VERTEX
  5
16B
330
169
100
AcDbEntity
  8
Layer 1
 62
     7
420
 16777215
370
    35
100
AcDbVertex
100
AcDb2dVertex
 10
-53.93546194700244
 20
-694.3057762384459
 30
0.0
  0
SEQEND
  5
16C
330
169
100
AcDbEntity
  8
Layer 1
 62
     7
420
 16777215
370
    35
  0
POLYLINE
  5
16D
330
1F
100
AcDbEntity
  8
Layer 1
 62
     7
420
 16777215
370
    35
100
AcDb2dPolyline
 66
     1
 10
0.0
 20
0.0
 30
0.0
  0
VERTEX
  5
16E
330
16D
100
AcDbEntity
  8
Layer 1
 62
     7
420
 16777215
370
    35
100
AcDbVertex
100
AcDb2dVertex
 10
-394.1793024715608
 20
-494.3058751604039
 30
0.0
  0
VERTEX
  5
16F
330
16D
100
AcDbEntity
  8
Layer 1
 62
     7
420
 16777215
370
    35
100
AcDbVertex
100
AcDb2dVertex
 10
-39.30145332854838
 20
-494.3058751604039
 30
0.0
  0
SEQEND
  5
170
330
16D
100
AcDbEntity
  8
Layer 1
 62
     7
420
 16777215
370
    35
  0
POLYLINE
  5
171
330
1F
100
AcDbEntity
  8
Layer 1
 62
     7
420
 16777215
370
    35
100
AcDb2dPolyline
 66
     1
 10
0.0
 20
0.0
 30
0.0
  0
VERTEX
  5
172
330
171
100
AcDbEntity
  8
Layer 1
 62
     7
420
 16777215
370
    35
100
AcDbVertex
100
AcDb2dVertex
 10
-758.8132348946634
 20
-494.3058751604039
 30
0.0
  0
VERTEX
  5
173
330
171
100
AcDbEntity
  8
Layer 1
 62
     7
420
 16777215
370
    35
100
AcDbVertex
100
AcDb2dVertex
 10
-758.8132348946634
 20
-495.5253371113784
 30
0.0
  0
SEQEND
  5
174
330
171
100
AcDbEntity
  8
Layer 1
 62
     7
420
 16777215
370
    35
  0
POLYLINE
  5
175
330
1F
100
AcDbEntity
  8
Layer 1
 62
     7
420
 16777215
370
    35
100
AcDb2dPolyline
 66
     1
 10
0.0
 20
0.0
 30
0.0
  0
VERTEX
  5
176
330
175
100
AcDbEntity
  8
Layer 1
 62
     7
420
 16777215
370
    35
100
AcDbVertex
100
AcDb2dVertex
 10
-8.813664002837221
 20
-494.3058751604007
 30
0.0
  0
VERTEX
  5
177
330
175
100
AcDbEntity
  8
Layer 1
 62
     7
420
 16777215
370
    35
100
AcDbVertex
100
AcDb2dVertex
 10
-8.813664002839145
 20
-495.5253371113784
 30
0.0
  0
SEQEND
  5
178
330
175
100
AcDbEntity
  8
Layer 1
 62
     7
420
 16777215
370
    35
  0
POLYLINE
  5
179
330
1F
100
AcDbEntity
  8
Layer 1
 62
     7
420
 16777215
370
    35
100
AcDb2dPolyline
 66
     1
 10
0.0
 20
0.0
 30
0.0
  0
VERTEX
  5
17A
330
179
100
AcDbEntity
  8
Layer 1
 62
     7
420
 16777215
370
    35
100
AcDbVertex
100
AcDb2dVertex
 10
-758.8132348946634
 20
-495.5253371113784
 30
0.0
  0
VERTEX
  5
17B
330
179
100
AcDbEntity
  8
Layer 1
 62
     7
420
 16777215
370
    35
100
AcDbVertex
100
AcDb2dVertex
 10
-730.1547160298732
 20
-495.5253371113784
 30
0.0
  0
SEQEND
  5
17C
330
179
100
AcDbEntity
  8
Layer 1
 62
     7
420
 16777215
370
    35
  0
POLYLINE
  5
17D
330
1F
100
AcDbEntity
  8
Layer 1
 62
     7
420
 16777215
370
    35
100
AcDb2dPolyline
 66
     1
 10
0.0
 20
0.0
 30
0.0
  0
VERTEX
  5
17E
330
17D
100
AcDbEntity
  8
Layer 1
 62
     7
420
 16777215
370
    35
100
AcDbVertex
100
AcDb2dVertex
 10
-427.7157466747124
 20
-495.5253371113784
 30
0.0
  0
VERTEX
  5
17F
330
17D
100
AcDbEntity
  8
Layer 1
 62
     7
420
 16777215
370
    35
100
AcDbVertex
100
AcDb2dVertex
 10
-395.3987644225353
 20
-495.5253371113784
 30
0.0
  0
SEQEND
  5
180
330
17D
100
AcDbEntity
  8
Layer 1
 62
     7
420
 16777215
370
    35
  0
POLYLINE
  5
181
330
1F
100
AcDbEntity
  8
Layer 1
 62
     7
420
 16777215
370
    35
100
AcDb2dPolyline
 66
     1
 10
0.0
 20
0.0
 30
0.0
  0
VERTEX
  5
182
330
181
100
AcDbEntity
  8
Layer 1
 62
     7
420
 16777215
370
    35
100
AcDbVertex
100
AcDb2dVertex
 10
-394.1793024715573
 20
-495.5253371113784
 30
0.0
  0
VERTEX
  5
183
330
181
100
AcDbEntity
  8
Layer 1
 62
     7
420
 16777215
370
    35
100
AcDbVertex
100
AcDb2dVertex
 10
-39.30145332855063
 20
-495.5253371113784
 30
0.0
  0
SEQEND
  5
184
330
181
100
AcDbEntity
  8
Layer 1
 62
     7
420
 16777215
370
    35
  0
POLYLINE
  5
185
330
1F
100
AcDbEntity
  8
Layer 1
 62
     7
420
 16777215
370
    35
100
AcDb2dPolyline
 66
     1
 10
0.0
 20
0.0
 30
0.0
  0
VERTEX
  5
186
330
185
100
AcDbEntity
  8
Layer 1
 62
     7
420
 16777215
370
    35
100
AcDbVertex
100
AcDb2dVertex
 10
-38.08183630866041
 20
-495.5253371113784
 30
0.0
  0
VERTEX
  5
187
330
185
100
AcDbEntity
  8
Layer 1
 62
     7
420
 16777215
370
    35
100
AcDbVertex
100
AcDb2dVertex
 10
-8.813664002839145
 20
-495.5253371113784
 30
0.0
  0
SEQEND
  5
188
330
185
100
AcDbEntity
  8
Layer 1
 62
     7
420
 16777215
370
    35
  0
POLYLINE
  5
189
330
1F
100
AcDbEntity
  8
Layer 1
 62
     7
420
 16777215
370
    35
100
AcDb2dPolyline
 66
     1
 10
0.0
 20
0.0
 30
0.0
  0
VERTEX
  5
18A
330
189
100
AcDbEntity
  8
Layer 1
 62
     7
420
 16777215
370
    35
100
AcDbVertex
100
AcDb2dVertex
 10
-758.8132348946634
 20
-494.3058751604039
 30
0.0
  0
VERTEX
  5
18B
330
189
100
AcDbEntity
  8
Layer 1
 62
     7
420
 16777215
370
    35
100
AcDbVertex
100
AcDb2dVertex
 10
-8.813664002837221
 20
-494.3058751604007
 30
0.0
  0
SEQEND
  5
18C
330
189
100
AcDbEntity
  8
Layer 1
 62
     7
420
 16777215
370
    35
  0
POLYLINE
  5
18D
330
1F
100
AcDbEntity
  8
Layer 1
 62
     7
420
 16777215
370
    35
100
AcDb2dPolyline
 66
     1
 10
0.0
 20
0.0
 30
0.0
  0
VERTEX
  5
18E
330
18D
100
AcDbEntity
  8
Layer 1
 62
     7
420
 16777215
370
    35
100
AcDbVertex
100
AcDb2dVertex
 10
-39.30145332854838
 20
-494.3058751604039
 30
0.0
  0
VERTEX
  5
18F
330
18D
100
AcDbEntity
  8
Layer 1
 62
     7
420
 16777215
370
    35
100
AcDbVertex
100
AcDb2dVertex
 10
-39.3014533285471
 20
-678.4520730656474
 30
0.0
  0
VERTEX
  5
190
330
18D
100
AcDbEntity
  8
Layer 1
 62
     7
420
 16777215
370
    35
100
AcDbVertex
100
AcDb2dVertex
 10
-39.91118430403756
 20
-683.9398844484116
 30
0.0
  0
VERTEX
  5
191
330
18D
100
AcDbEntity
  8
Layer 1
 62
     7
420
 16777215
370
    35
100
AcDbVertex
100
AcDb2dVertex
 10
-43.56972522588065
 20
-688.8179648556854
 30
0.0
  0
VERTEX
  5
192
330
18D
100
AcDbEntity
  8
Layer 1
 62
     7
420
 16777215
370
    35
100
AcDbVertex
100
AcDb2dVertex
 10
-48.44772809869664
 20
-692.4765057775247
 30
0.0
  0
VERTEX
  5
193
330
18D
100
AcDbEntity
  8
Layer 1
 62
     7
420
 16777215
370
    35
100
AcDbVertex
100
AcDb2dVertex
 10
-53.93546194700051
 20
-693.0862367530152
 30
0.0
  0
SEQEND
  5
194
330
18D
100
AcDbEntity
  8
Layer 1
 62
     7
420
 16777215
370
    35
  0
POLYLINE
  5
195
330
1F
100
AcDbEntity
  8
Layer 1
 62
     7
420
 16777215
370
    35
100
AcDb2dPolyline
 66
     1
 10
0.0
 20
0.0
 30
0.0
  0
VERTEX
  5
196
330
195
100
AcDbEntity
  8
Layer 1
 62
     7
420
 16777215
370
    35
100
AcDbVertex
100
AcDb2dVertex
 10
-38.08183630865688
 20
-678.4520730656474
 30
0.0
  0
VERTEX
  5
197
330
195
100
AcDbEntity
  8
Layer 1
 62
     7
420
 16777215
370
    35
100
AcDbVertex
100
AcDb2dVertex
 10
-39.30145332854903
 20
-684.5496154238957
 30
0.0
  0
VERTEX
  5
198
330
195
100
AcDbEntity
  8
Layer 1
 62
     7
420
 16777215
370
    35
100
AcDbVertex
100
AcDb2dVertex
 10
-42.35010820598882
 20
-690.0374268066632
 30
0.0
  0
VERTEX
  5
199
330
195
100
AcDbEntity
  8
Layer 1
 62
     7
420
 16777215
370
    35
100
AcDbVertex
100
AcDb2dVertex
 10
-47.83799712320842
 20
-693.0862367530152
 30
0.0
  0
VERTEX
  5
19A
330
195
100
AcDbEntity
  8
Layer 1
 62
     7
420
 16777215
370
    35
100
AcDbVertex
100
AcDb2dVertex
 10
-53.93546194700244
 20
-694.3057762384459
 30
0.0
  0
SEQEND
  5
19B
330
195
100
AcDbEntity
  8
Layer 1
 62
     7
420
 16777215
370
    35
  0
POLYLINE
  5
19C
330
1F
100
AcDbEntity
  8
Layer 1
 62
     7
420
 16777215
370
    35
100
AcDb2dPolyline
 66
     1
 10
0.0
 20
0.0
 30
0.0
  0
VERTEX
  5
19D
330
19C
100
AcDbEntity
  8
Layer 1
 62
     7
420
 16777215
370
    35
100
AcDbVertex
100
AcDb2dVertex
 10
-394.1793024715608
 20
-494.3058751604039
 30
0.0
  0
VERTEX
  5
19E
330
19C
100
AcDbEntity
  8
Layer 1
 62
     7
420
 16777215
370
    35
100
AcDbVertex
100
AcDb2dVertex
 10
-394.1793024715608
 20
-678.4520730656474
 30
0.0
  0
SEQEND
  5
19F
330
19C
100
AcDbEntity
  8
Layer 1
 62
     7
420
 16777215
370
    35
  0
POLYLINE
  5
1A0
330
1F
100
AcDbEntity
  8
Layer 1
 62
     7
420
 16777215
370
    35
100
AcDb2dPolyline
 66
     1
 10
0.0
 20
0.0
 30
0.0
  0
VERTEX
  5
1A1
330
1A0
100
AcDbEntity
  8
Layer 1
 62
     7
420
 16777215
370
    35
100
AcDbVertex
100
AcDb2dVertex
 10
-38.08183630866041
 20
-495.5253371113784
 30
0.0
  0
VERTEX
  5
1A2
330
1A0
100
AcDbEntity
  8
Layer 1
 62
     7
420
 16777215
370
    35
100
AcDbVertex
100
AcDb2dVertex
 10
-38.08183630865688
 20
-678.4520730656474
 30
0.0
  0
SEQEND
  5
1A3
330
1A0
100
AcDbEntity
  8
Layer 1
 62
     7
420
 16777215
370
    35
  0
POLYLINE
  5
1A4
330
1F
100
AcDbEntity
  8
Layer 1
 62
     7
420
 16777215
370
    35
100
AcDb2dPolyline
 66
     1
 10
0.0
 20
0.0
 30
0.0
  0
VERTEX
  5
1A5
330
1A4
100
AcDbEntity
  8
Layer 1
 62
     7
420
 16777215
370
    35
100
AcDbVertex
100
AcDb2dVertex
 10
-378.9354078087051
 20
-693.0862367530152
 30
0.0
  0
VERTEX
  5
1A6
330
1A4
100
AcDbEntity
  8
Layer 1
 62
     7
420
 16777215
370
    35
100
AcDbVertex
100
AcDb2dVertex
 10
-384.4231416570134
 20
-692.4765057775247
 30
0.0
  0
VERTEX
  5
1A7
330
1A4
100
AcDbEntity
  8
Layer 1
 62
     7
420
 16777215
370
    35
100
AcDbVertex
100
AcDb2dVertex
 10
-389.3011445298243
 20
-688.8179648556854
 30
0.0
  0
VERTEX
  5
1A8
330
1A4
100
AcDbEntity
  8
Layer 1
 62
     7
420
 16777215
370
    35
100
AcDbVertex
100
AcDb2dVertex
 10
-392.9596854516706
 20
-683.9398844484116
 30
0.0
  0
VERTEX
  5
1A9
330
1A4
100
AcDbEntity
  8
Layer 1
 62
     7
420
 16777215
370
    35
100
AcDbVertex
100
AcDb2dVertex
 10
-394.1793024715608
 20
-678.4520730656474
 30
0.0
  0
SEQEND
  5
1AA
330
1A4
100
AcDbEntity
  8
Layer 1
 62
     7
420
 16777215
370
    35
  0
POLYLINE
  5
1AB
330
1F
100
AcDbEntity
  8
Layer 1
 62
     7
420
 16777215
370
    35
100
AcDb2dPolyline
 66
     1
 10
0.0
 20
0.0
 30
0.0
  0
VERTEX
  5
1AC
330
1AB
100
AcDbEntity
  8
Layer 1
 62
     7
420
 16777215
370
    35
100
AcDbVertex
100
AcDb2dVertex
 10
-378.9354078087051
 20
-694.3057762384459
 30
0.0
  0
VERTEX
  5
1AD
330
1AB
100
AcDbEntity
  8
Layer 1
 62
     7
420
 16777215
370
    35
100
AcDbVertex
100
AcDb2dVertex
 10
-385.032872632501
 20
-693.0862367530152
 30
0.0
  0
VERTEX
  5
1AE
330
1AB
100
AcDbEntity
  8
Layer 1
 62
     7
420
 16777215
370
    35
100
AcDbVertex
100
AcDb2dVertex
 10
-390.5207615497177
 20
-690.0374268066632
 30
0.0
  0
VERTEX
  5
1AF
330
1AB
100
AcDbEntity
  8
Layer 1
 62
     7
420
 16777215
370
    35
100
AcDbVertex
100
AcDb2dVertex
 10
-394.1793024715608
 20
-684.5496154238989
 30
0.0
  0
VERTEX
  5
1B0
330
1AB
100
AcDbEntity
  8
Layer 1
 62
     7
420
 16777215
370
    35
100
AcDbVertex
100
AcDb2dVertex
 10
-395.3987644225353
 20
-678.4520730656474
 30
0.0
  0
VERTEX
  5
1B1
330
1AB
100
AcDbEntity
  8
Layer 1
 62
     7
420
 16777215
370
    35
100
AcDbVertex
100
AcDb2dVertex
 10
-395.3987644225353
 20
-495.5253371113784
 30
0.0
  0
SEQEND
  5
1B2
330
1AB
100
AcDbEntity
  8
Layer 1
 62
     7
420
 16777215
370
    35
  0
POLYLINE
  5
1B3
330
1F
100
AcDbEntity
  8
Layer 1
 62
     7
420
 16777215
370
    35
100
AcDb2dPolyline
 66
     1
 10
0.0
 20
0.0
 30
0.0
  0
VERTEX
  5
1B4
330
1B3
100
AcDbEntity
  8
Layer 1
 62
     7
420
 16777215
370
    35
100
AcDbVertex
100
AcDb2dVertex
 10
-713.6912818815834
 20
-693.0862367530152
 30
0.0
  0
VERTEX
  5
1B5
330
1B3
100
AcDbEntity
  8
Layer 1
 62
     7
420
 16777215
370
    35
100
AcDbVertex
100
AcDb2dVertex
 10
-444.179258357458
 20
-693.0862367530152
 30
0.0
  0
SEQEND
  5
1B6
330
1B3
100
AcDbEntity
  8
Layer 1
 62
     7
420
 16777215
370
    35
  0
POLYLINE
  5
1B7
330
1F
100
AcDbEntity
  8
Layer 1
 62
     7
420
 16777215
370
    35
100
AcDb2dPolyline
 66
     1
 10
0.0
 20
0.0
 30
0.0
  0
VERTEX
  5
1B8
330
1B7
100
AcDbEntity
  8
Layer 1
 62
     7
420
 16777215
370
    35
100
AcDbVertex
100
AcDb2dVertex
 10
-713.691281881587
 20
-694.3057762384498
 30
0.0
  0
VERTEX
  5
1B9
330
1B7
100
AcDbEntity
  8
Layer 1
 62
     7
420
 16777215
370
    35
100
AcDbVertex
100
AcDb2dVertex
 10
-444.179258357458
 20
-694.3057762384498
 30
0.0
  0
SEQEND
  5
1BA
330
1B7
100
AcDbEntity
  8
Layer 1
 62
     7
420
 16777215
370
    35
  0
POLYLINE
  5
1BB
330
1F
100
AcDbEntity
  8
Layer 1
 62
     7
420
 16777215
370
    35
100
AcDb2dPolyline
 66
     1
 10
0.0
 20
0.0
 30
0.0
  0
VERTEX
  5
1BC
330
1BB
100
AcDbEntity
  8
Layer 1
 62
     7
420
 16777215
370
    35
100
AcDbVertex
100
AcDb2dVertex
 10
-728.9351765444392
 20
-494.3058751604039
 30
0.0
  0
VERTEX
  5
1BD
330
1BB
100
AcDbEntity
  8
Layer 1
 62
     7
420
 16777215
370
    35
100
AcDbVertex
100
AcDb2dVertex
 10
-428.9353636946026
 20
-494.3058751604039
 30
0.0
  0
SEQEND
  5
1BE
330
1BB
100
AcDbEntity
  8
Layer 1
 62
     7
420
 16777215
370
    35
  0
POLYLINE
  5
1BF
330
1F
100
AcDbEntity
  8
Layer 1
 62
     7
420
 16777215
370
    35
100
AcDb2dPolyline
 66
     1
 10
0.0
 20
0.0
 30
0.0
  0
VERTEX
  5
1C0
330
1BF
100
AcDbEntity
  8
Layer 1
 62
     7
420
 16777215
370
    35
100
AcDbVertex
100
AcDb2dVertex
 10
-428.9353636946026
 20
-494.3058751604039
 30
0.0
  0
VERTEX
  5
1C1
330
1BF
100
AcDbEntity
  8
Layer 1
 62
     7
420
 16777215
370
    35
100
AcDbVertex
100
AcDb2dVertex
 10
-428.9353636946026
 20
-678.4520730656474
 30
0.0
  0
VERTEX
  5
1C2
330
1BF
100
AcDbEntity
  8
Layer 1
 62
     7
420
 16777215
370
    35
100
AcDbVertex
100
AcDb2dVertex
 10
-430.1548256455807
 20
-683.9398844484077
 30
0.0
  0
VERTEX
  5
1C3
330
1BF
100
AcDbEntity
  8
Layer 1
 62
     7
420
 16777215
370
    35
100
AcDbVertex
100
AcDb2dVertex
 10
-433.2036355919291
 20
-688.8179648556816
 30
0.0
  0
VERTEX
  5
1C4
330
1BF
100
AcDbEntity
  8
Layer 1
 62
     7
420
 16777215
370
    35
100
AcDbVertex
100
AcDb2dVertex
 10
-438.0816384647505
 20
-692.4765057775247
 30
0.0
  0
VERTEX
  5
1C5
330
1BF
100
AcDbEntity
  8
Layer 1
 62
     7
420
 16777215
370
    35
100
AcDbVertex
100
AcDb2dVertex
 10
-444.179258357458
 20
-693.0862367530152
 30
0.0
  0
SEQEND
  5
1C6
330
1BF
100
AcDbEntity
  8
Layer 1
 62
     7
420
 16777215
370
    35
  0
POLYLINE
  5
1C7
330
1F
100
AcDbEntity
  8
Layer 1
 62
     7
420
 16777215
370
    35
100
AcDb2dPolyline
 66
     1
 10
0.0
 20
0.0
 30
0.0
  0
VERTEX
  5
1C8
330
1C7
100
AcDbEntity
  8
Layer 1
 62
     7
420
 16777215
370
    35
100
AcDbVertex
100
AcDb2dVertex
 10
-427.7157466747124
 20
-678.4520730656474
 30
0.0
  0
VERTEX
  5
1C9
330
1C7
100
AcDbEntity
  8
Layer 1
 62
     7
420
 16777215
370
    35
100
AcDbVertex
100
AcDb2dVertex
 10
-428.9353636946026
 20
-684.5496154238989
 30
0.0
  0
VERTEX
  5
1CA
330
1C7
100
AcDbEntity
  8
Layer 1
 62
     7
420
 16777215
370
    35
100
AcDbVertex
100
AcDb2dVertex
 10
-432.5939046164419
 20
-690.0374268066599
 30
0.0
  0
VERTEX
  5
1CB
330
1C7
100
AcDbEntity
  8
Layer 1
 62
     7
420
 16777215
370
    35
100
AcDbVertex
100
AcDb2dVertex
 10
-437.471907489263
 20
-693.0862367530152
 30
0.0
  0
VERTEX
  5
1CC
330
1C7
100
AcDbEntity
  8
Layer 1
 62
     7
420
 16777215
370
    35
100
AcDbVertex
100
AcDb2dVertex
 10
-444.179258357458
 20
-694.3057762384498
 30
0.0
  0
SEQEND
  5
1CD
330
1C7
100
AcDbEntity
  8
Layer 1
 62
     7
420
 16777215
370
    35
  0
POLYLINE
  5
1CE
330
1F
100
AcDbEntity
  8
Layer 1
 62
     7
420
 16777215
370
    35
100
AcDb2dPolyline
 66
     1
 10
0.0
 20
0.0
 30
0.0
  0
VERTEX
  5
1CF
330
1CE
100
AcDbEntity
  8
Layer 1
 62
     7
420
 16777215
370
    35
100
AcDbVertex
100
AcDb2dVertex
 10
-728.9351765444392
 20
-494.3058751604039
 30
0.0
  0
VERTEX
  5
1D0
330
1CE
100
AcDbEntity
  8
Layer 1
 62
     7
420
 16777215
370
    35
100
AcDbVertex
100
AcDb2dVertex
 10
-728.9351765444427
 20
-678.4520730656474
 30
0.0
  0
SEQEND
  5
1D1
330
1CE
100
AcDbEntity
  8
Layer 1
 62
     7
420
 16777215
370
    35
  0
POLYLINE
  5
1D2
330
1F
100
AcDbEntity
  8
Layer 1
 62
     7
420
 16777215
370
    35
100
AcDb2dPolyline
 66
     1
 10
0.0
 20
0.0
 30
0.0
  0
VERTEX
  5
1D3
330
1D2
100
AcDbEntity
  8
Layer 1
 62
     7
420
 16777215
370
    35
100
AcDbVertex
100
AcDb2dVertex
 10
-427.7157466747124
 20
-495.5253371113784
 30
0.0
  0
VERTEX
  5
1D4
330
1D2
100
AcDbEntity
  8
Layer 1
 62
     7
420
 16777215
370
    35
100
AcDbVertex
100
AcDb2dVertex
 10
-427.7157466747124
 20
-678.4520730656474
 30
0.0
  0
SEQEND
  5
1D5
330
1D2
100
AcDbEntity
  8
Layer 1
 62
     7
420
 16777215
370
    35
  0
POLYLINE
  5
1D6
330
1F
100
AcDbEntity
  8
Layer 1
 62
     7
420
 16777215
370
    35
100
AcDb2dPolyline
 66
     1
 10
0.0
 20
0.0
 30
0.0
  0
VERTEX
  5
1D7
330
1D6
100
AcDbEntity
  8
Layer 1
 62
     7
420
 16777215
370
    35
100
AcDbVertex
100
AcDb2dVertex
 10
-713.6912818815834
 20
-693.0862367530152
 30
0.0
  0
VERTEX
  5
1D8
330
1D6
100
AcDbEntity
  8
Layer 1
 62
     7
420
 16777215
370
    35
100
AcDbVertex
100
AcDb2dVertex
 10
-719.7888242398353
 20
-692.4765057775247
 30
0.0
  0
VERTEX
  5
1D9
330
1D6
100
AcDbEntity
  8
Layer 1
 62
     7
420
 16777215
370
    35
100
AcDbVertex
100
AcDb2dVertex
 10
-724.6669046471088
 20
-688.8179648556854
 30
0.0
  0
VERTEX
  5
1DA
330
1D6
100
AcDbEntity
  8
Layer 1
 62
     7
420
 16777215
370
    35
100
AcDbVertex
100
AcDb2dVertex
 10
-727.7156370590084
 20
-683.9398844484077
 30
0.0
  0
VERTEX
  5
1DB
330
1D6
100
AcDbEntity
  8
Layer 1
 62
     7
420
 16777215
370
    35
100
AcDbVertex
100
AcDb2dVertex
 10
-728.9351765444427
 20
-678.4520730656474
 30
0.0
  0
SEQEND
  5
1DC
330
1D6
100
AcDbEntity
  8
Layer 1
 62
     7
420
 16777215
370
    35
  0
POLYLINE
  5
1DD
330
1F
100
AcDbEntity
  8
Layer 1
 62
     7
420
 16777215
370
    35
100
AcDb2dPolyline
 66
     1
 10
0.0
 20
0.0
 30
0.0
  0
VERTEX
  5
1DE
330
1DD
100
AcDbEntity
  8
Layer 1
 62
     7
420
 16777215
370
    35
100
AcDbVertex
100
AcDb2dVertex
 10
-713.691281881587
 20
-694.3057762384498
 30
0.0
  0
VERTEX
  5
1DF
330
1DD
100
AcDbEntity
  8
Layer 1
 62
     7
420
 16777215
370
    35
100
AcDbVertex
100
AcDb2dVertex
 10
-720.3985552153225
 20
-693.0862367530152
 30
0.0
  0
VERTEX
  5
1E0
330
1DD
100
AcDbEntity
  8
Layer 1
 62
     7
420
 16777215
370
    35
100
AcDbVertex
100
AcDb2dVertex
 10
-725.276635622596
 20
-690.0374268066599
 30
0.0
  0
VERTEX
  5
1E1
330
1DD
100
AcDbEntity
  8
Layer 1
 62
     7
420
 16777215
370
    35
100
AcDbVertex
100
AcDb2dVertex
 10
-728.9351765444392
 20
-684.5496154238989
 30
0.0
  0
VERTEX
  5
1E2
330
1DD
100
AcDbEntity
  8
Layer 1
 62
     7
420
 16777215
370
    35
100
AcDbVertex
100
AcDb2dVertex
 10
-730.1547160298732
 20
-678.4520730656474
 30
0.0
  0
VERTEX
  5
1E3
330
1DD
100
AcDbEntity
  8
Layer 1
 62
     7
420
 16777215
370
    35
100
AcDbVertex
100
AcDb2dVertex
 10
-730.1547160298732
 20
-495.5253371113784
 30
0.0
  0
SEQEND
  5
1E4
330
1DD
100
AcDbEntity
  8
Layer 1
 62
     7
420
 16777215
370
    35
  0
POLYLINE
  5
1E5
330
1F
100
AcDbEntity
  8
Layer 1
 62
     7
420
 16777215
370
    35
100
AcDb2dPolyline
 66
     1
 10
0.0
 20
0.0
 30
0.0
  0
VERTEX
  5
1E6
330
1E5
100
AcDbEntity
  8
Layer 1
 62
     7
420
 16777215
370
    35
100
AcDbVertex
100
AcDb2dVertex
 10
-395.3987644225353
 20
-679.061881575594
 30
0.0
  0
VERTEX
  5
1E7
330
1E5
100
AcDbEntity
  8
Layer 1
 62
     7
420
 16777215
370
    35
100
AcDbVertex
100
AcDb2dVertex
 10
-427.7157466747086
 20
-679.061881575594
 30
0.0
  0
VERTEX
  5
1E8
330
1E5
100
AcDbEntity
  8
Layer 1
 62
     7
420
 16777215
370
    35
100
AcDbVertex
100
AcDb2dVertex
 10
-427.7157466747086
 20
-658.330175529974
 30
0.0
  0
VERTEX
  5
1E9
330
1E5
100
AcDbEntity
  8
Layer 1
 62
     7
420
 16777215
370
    35
100
AcDbVertex
100
AcDb2dVertex
 10
-395.3987644225318
 20
-658.330175529974
 30
0.0
  0
VERTEX
  5
1EA
330
1E5
100
AcDbEntity
  8
Layer 1
 62
     7
420
 16777215
370
    35
100
AcDbVertex
100
AcDb2dVertex
 10
-395.3987644225353
 20
-679.061881575594
 30
0.0
  0
SEQEND
  5
1EB
330
1E5
100
AcDbEntity
  8
Layer 1
 62
     7
420
 16777215
370
    35
  0
POLYLINE
  5
1EC
330
1F
100
AcDbEntity
  8
Layer 1
 62
     7
420
 16777215
370
    35
100
AcDb2dPolyline
 66
     1
 10
0.0
 20
0.0
 30
0.0
  0
VERTEX
  5
1ED
330
1EC
100
AcDbEntity
  8
Layer 1
 62
     7
420
 16777215
370
    35
100
AcDbVertex
100
AcDb2dVertex
 10
-519.1791146518466
 20
-694.3057762384498
 30
0.0
  0
VERTEX
  5
1EE
330
1EC
100
AcDbEntity
  8
Layer 1
 62
     7
420
 16777215
370
    35
100
AcDbVertex
100
AcDb2dVertex
 10
-521.6181936227077
 20
-697.964317160289
 30
0.0
  0
VERTEX
  5
1EF
330
1EC
100
AcDbEntity
  8
Layer 1
 62
     7
420
 16777215
370
    35
100
AcDbVertex
100
AcDb2dVertex
 10
-534.423009314702
 20
-702.2325890576194
 30
0.0
  0
SEQEND
  5
1F0
330
1EC
100
AcDbEntity
  8
Layer 1
 62
     7
420
 16777215
370
    35
  0
POLYLINE
  5
1F1
330
1F
100
AcDbEntity
  8
Layer 1
 62
     7
420
 16777215
370
    35
100
AcDb2dPolyline
 66
     1
 10
0.0
 20
0.0
 30
0.0
  0
VERTEX
  5
1F2
330
1F1
100
AcDbEntity
  8
Layer 1
 62
     7
420
 16777215
370
    35
100
AcDbVertex
100
AcDb2dVertex
 10
-623.4474533898835
 20
-702.2325890576194
 30
0.0
  0
VERTEX
  5
1F3
330
1F1
100
AcDbEntity
  8
Layer 1
 62
     7
420
 16777215
370
    35
100
AcDbVertex
100
AcDb2dVertex
 10
-534.423009314702
 20
-702.2325890576194
 30
0.0
  0
SEQEND
  5
1F4
330
1F1
100
AcDbEntity
  8
Layer 1
 62
     7
420
 16777215
370
    35
  0
POLYLINE
  5
1F5
330
1F
100
AcDbEntity
  8
Layer 1
 62
     7
420
 16777215
370
    35
100
AcDb2dPolyline
 66
     1
 10
0.0
 20
0.0
 30
0.0
  0
VERTEX
  5
1F6
330
1F5
100
AcDbEntity
  8
Layer 1
 62
     7
420
 16777215
370
    35
100
AcDbVertex
100
AcDb2dVertex
 10
-635.6425381063834
 20
-697.9643171602928
 30
0.0
  0
VERTEX
  5
1F7
330
1F5
100
AcDbEntity
  8
Layer 1
 62
     7
420
 16777215
370
    35
100
AcDbVertex
100
AcDb2dVertex
 10
-521.6181936227077
 20
-697.964317160289
 30
0.0
  0
SEQEND
  5
1F8
330
1F5
100
AcDbEntity
  8
Layer 1
 62
     7
420
 16777215
370
    35
  0
POLYLINE
  5
1F9
330
1F
100
AcDbEntity
  8
Layer 1
 62
     7
420
 16777215
370
    35
100
AcDb2dPolyline
 66
     1
 10
0.0
 20
0.0
 30
0.0
  0
VERTEX
  5
1FA
330
1F9
100
AcDbEntity
  8
Layer 1
 62
     7
420
 16777215
370
    35
100
AcDbVertex
100
AcDb2dVertex
 10
-638.0815395427958
 20
-694.3057762384498
 30
0.0
  0
VERTEX
  5
1FB
330
1F9
100
AcDbEntity
  8
Layer 1
 62
     7
420
 16777215
370
    35
100
AcDbVertex
100
AcDb2dVertex
 10
-635.6425381063834
 20
-697.9643171602928
 30
0.0
  0
VERTEX
  5
1FC
330
1F9
100
AcDbEntity
  8
Layer 1
 62
     7
420
 16777215
370
    35
100
AcDbVertex
100
AcDb2dVertex
 10
-623.4474533898835
 20
-702.2325890576194
 30
0.0
  0
SEQEND
  5
1FD
330
1F9
100
AcDbEntity
  8
Layer 1
 62
     7
420
 16777215
370
    35
  0
POLYLINE
  5
1FE
330
1F
100
AcDbEntity
  8
Layer 1
 62
     7
420
 16777215
370
    35
100
AcDb2dPolyline
 66
     1
 10
0.0
 20
0.0
 30
0.0
  0
VERTEX
  5
1FF
330
1FE
100
AcDbEntity
  8
Layer 1
 62
     7
420
 16777215
370
    35
100
AcDbVertex
100
AcDb2dVertex
 10
-519.1791146518466
 20
-694.3057762384498
 30
0.0
  0
VERTEX
  5
200
330
1FE
100
AcDbEntity
  8
Layer 1
 62
     7
420
 16777215
370
    35
100
AcDbVertex
100
AcDb2dVertex
 10
-638.0815395427958
 20
-694.3057762384498
 30
0.0
  0
SEQEND
  5
201
330
1FE
100
AcDbEntity
  8
Layer 1
 62
     7
420
 16777215
370
    35
  0
POLYLINE
  5
202
330
1F
100
AcDbEntity
  8
Layer 1
 62
     7
420
 16777215
370
    35
100
AcDb2dPolyline
 66
     1
 10
0.0
 20
0.0
 30
0.0
  0
VERTEX
  5
203
330
202
100
AcDbEntity
  8
Layer 1
 62
     7
420
 16777215
370
    35
100
AcDbVertex
100
AcDb2dVertex
 10
-156.374452689662
 20
-694.3057762384498
 30
0.0
  0
VERTEX
  5
204
330
202
100
AcDbEntity
  8
Layer 1
 62
     7
420
 16777215
370
    35
100
AcDbVertex
100
AcDb2dVertex
 10
-158.813531660529
 20
-697.9643171602928
 30
0.0
  0
VERTEX
  5
205
330
202
100
AcDbEntity
  8
Layer 1
 62
     7
420
 16777215
370
    35
100
AcDbVertex
100
AcDb2dVertex
 10
-172.2280783280046
 20
-702.2325890576226
 30
0.0
  0
SEQEND
  5
206
330
202
100
AcDbEntity
  8
Layer 1
 62
     7
420
 16777215
370
    35
  0
POLYLINE
  5
207
330
1F
100
AcDbEntity
  8
Layer 1
 62
     7
420
 16777215
370
    35
100
AcDb2dPolyline
 66
     1
 10
0.0
 20
0.0
 30
0.0
  0
VERTEX
  5
208
330
207
100
AcDbEntity
  8
Layer 1
 62
     7
420
 16777215
370
    35
100
AcDbVertex
100
AcDb2dVertex
 10
-261.2525224031895
 20
-702.2325890576194
 30
0.0
  0
VERTEX
  5
209
330
207
100
AcDbEntity
  8
Layer 1
 62
     7
420
 16777215
370
    35
100
AcDbVertex
100
AcDb2dVertex
 10
-172.2280783280046
 20
-702.2325890576226
 30
0.0
  0
SEQEND
  5
20A
330
207
100
AcDbEntity
  8
Layer 1
 62
     7
420
 16777215
370
    35
  0
POLYLINE
  5
20B
330
1F
100
AcDbEntity
  8
Layer 1
 62
     7
420
 16777215
370
    35
100
AcDb2dPolyline
 66
     1
 10
0.0
 20
0.0
 30
0.0
  0
VERTEX
  5
20C
330
20B
100
AcDbEntity
  8
Layer 1
 62
     7
420
 16777215
370
    35
100
AcDbVertex
100
AcDb2dVertex
 10
-272.8378761442012
 20
-697.964317160289
 30
0.0
  0
VERTEX
  5
20D
330
20B
100
AcDbEntity
  8
Layer 1
 62
     7
420
 16777215
370
    35
100
AcDbVertex
100
AcDb2dVertex
 10
-158.813531660529
 20
-697.9643171602928
 30
0.0
  0
SEQEND
  5
20E
330
20B
100
AcDbEntity
  8
Layer 1
 62
     7
420
 16777215
370
    35
  0
POLYLINE
  5
20F
330
1F
100
AcDbEntity
  8
Layer 1
 62
     7
420
 16777215
370
    35
100
AcDb2dPolyline
 66
     1
 10
0.0
 20
0.0
 30
0.0
  0
VERTEX
  5
210
330
20F
100
AcDbEntity
  8
Layer 1
 62
     7
420
 16777215
370
    35
100
AcDbVertex
100
AcDb2dVertex
 10
-275.2768000461521
 20
-694.3057762384459
 30
0.0
  0
VERTEX
  5
211
330
20F
100
AcDbEntity
  8
Layer 1
 62
     7
420
 16777215
370
    35
100
AcDbVertex
100
AcDb2dVertex
 10
-272.8378761442012
 20
-697.964317160289
 30
0.0
  0
VERTEX
  5
212
330
20F
100
AcDbEntity
  8
Layer 1
 62
     7
420
 16777215
370
    35
100
AcDbVertex
100
AcDb2dVertex
 10
-261.2525224031895
 20
-702.2325890576194
 30
0.0
  0
SEQEND
  5
213
330
20F
100
AcDbEntity
  8
Layer 1
 62
     7
420
 16777215
370
    35
  0
POLYLINE
  5
214
330
1F
100
AcDbEntity
  8
Layer 1
 62
     7
420
 16777215
370
    35
100
AcDb2dPolyline
 66
     1
 10
0.0
 20
0.0
 30
0.0
  0
VERTEX
  5
215
330
214
100
AcDbEntity
  8
Layer 1
 62
     7
420
 16777215
370
    35
100
AcDbVertex
100
AcDb2dVertex
 10
-156.374452689662
 20
-694.3057762384498
 30
0.0
  0
VERTEX
  5
216
330
214
100
AcDbEntity
  8
Layer 1
 62
     7
420
 16777215
370
    35
100
AcDbVertex
100
AcDb2dVertex
 10
-275.2768000461521
 20
-694.3057762384459
 30
0.0
  0
SEQEND
  5
217
330
214
100
AcDbEntity
  8
Layer 1
 62
     7
420
 16777215
370
    35
  0
POLYLINE
  5
218
330
1F
100
AcDbEntity
  8
Layer 1
 62
     7
420
 16777215
370
    35
100
AcDb2dPolyline
 66
     1
 10
0.0
 20
0.0
 30
0.0
  0
VERTEX
  5
219
330
218
100
AcDbEntity
  8
Layer 1
 62
     7
420
 16777215
370
    35
100
AcDbVertex
100
AcDb2dVertex
 10
-733.203448441766
 20
-496.7448765968091
 30
0.0
  0
VERTEX
  5
21A
330
218
100
AcDbEntity
  8
Layer 1
 62
     7
420
 16777215
370
    35
100
AcDbVertex
100
AcDb2dVertex
 10
-733.2034484417695
 20
-495.5253371113784
 30
0.0
  0
SEQEND
  5
21B
330
218
100
AcDbEntity
  8
Layer 1
 62
     7
420
 16777215
370
    35
  0
POLYLINE
  5
21C
330
1F
100
AcDbEntity
  8
Layer 1
 62
     7
420
 16777215
370
    35
100
AcDb2dPolyline
 66
     1
 10
0.0
 20
0.0
 30
0.0
  0
VERTEX
  5
21D
330
21C
100
AcDbEntity
  8
Layer 1
 62
     7
420
 16777215
370
    35
100
AcDbVertex
100
AcDb2dVertex
 10
-35.03302636230265
 20
-496.744876596813
 30
0.0
  0
VERTEX
  5
21E
330
21C
100
AcDbEntity
  8
Layer 1
 62
     7
420
 16777215
370
    35
100
AcDbVertex
100
AcDb2dVertex
 10
-24.66728964118021
 20
-496.744876596813
 30
0.0
  0
VERTEX
  5
21F
330
21C
100
AcDbEntity
  8
Layer 1
 62
     7
420
 16777215
370
    35
100
AcDbVertex
100
AcDb2dVertex
 10
-24.66728964118246
 20
-515.647312181508
 30
0.0
  0
SEQEND
  5
220
330
21C
100
AcDbEntity
  8
Layer 1
 62
     7
420
 16777215
370
    35
  0
POLYLINE
  5
221
330
1F
100
AcDbEntity
  8
Layer 1
 62
     7
420
 16777215
370
    35
100
AcDb2dPolyline
 66
     1
 10
0.0
 20
0.0
 30
0.0
  0
VERTEX
  5
222
330
221
100
AcDbEntity
  8
Layer 1
 62
     7
420
 16777215
370
    35
100
AcDbVertex
100
AcDb2dVertex
 10
-35.03302636230458
 20
-495.5253371113784
 30
0.0
  0
VERTEX
  5
223
330
221
100
AcDbEntity
  8
Layer 1
 62
     7
420
 16777215
370
    35
100
AcDbVertex
100
AcDb2dVertex
 10
-35.03302636230265
 20
-496.744876596813
 30
0.0
  0
SEQEND
  5
224
330
221
100
AcDbEntity
  8
Layer 1
 62
     7
420
 16777215
370
    35
  0
POLYLINE
  5
225
330
1F
100
AcDbEntity
  8
Layer 1
 62
     7
420
 16777215
370
    35
100
AcDb2dPolyline
 66
     1
 10
0.0
 20
0.0
 30
0.0
  0
VERTEX
  5
226
330
225
100
AcDbEntity
  8
Layer 1
 62
     7
420
 16777215
370
    35
100
AcDbVertex
100
AcDb2dVertex
 10
-24.05755866569489
 20
-515.6473121815047
 30
0.0
  0
VERTEX
  5
227
330
225
100
AcDbEntity
  8
Layer 1
 62
     7
420
 16777215
370
    35
100
AcDbVertex
100
AcDb2dVertex
 10
-24.66728964118246
 20
-515.647312181508
 30
0.0
  0
SEQEND
  5
228
330
225
100
AcDbEntity
  8
Layer 1
 62
     7
420
 16777215
370
    35
  0
POLYLINE
  5
229
330
1F
100
AcDbEntity
  8
Layer 1
 62
     7
420
 16777215
370
    35
100
AcDb2dPolyline
 66
     1
 10
0.0
 20
0.0
 30
0.0
  0
VERTEX
  5
22A
330
229
100
AcDbEntity
  8
Layer 1
 62
     7
420
 16777215
370
    35
100
AcDbVertex
100
AcDb2dVertex
 10
-23.44767262129224
 20
-515.647312181508
 30
0.0
  0
VERTEX
  5
22B
330
229
100
AcDbEntity
  8
Layer 1
 62
     7
420
 16777215
370
    35
100
AcDbVertex
100
AcDb2dVertex
 10
-23.44767262129191
 20
-495.5253371113784
 30
0.0
  0
SEQEND
  5
22C
330
229
100
AcDbEntity
  8
Layer 1
 62
     7
420
 16777215
370
    35
  0
MTEXT
  5
22D
330
1F
100
AcDbEntity
  8
Layer 1
 62
     7
420
 16777215
100
AcDbMText
 10
-890.756352519824
 20
-4.248448688716534
 30
0.0
 40
20.77763607929859
 41
0.0
 46
0.0
 71
     7
 72
     1
  1
\fMyriad Pro|b0|i0|c0|p34;\W1;345
 11
6.123233995736766E-17
 21
1.0
 31
0.0
 73
     1
 44
1.0
  0
MTEXT
  5
22E
330
1F
100
AcDbEntity
  8
Layer 1
 62
     7
420
 16777215
100
AcDbMText
 10
27.19937336559599
 20
210.815555774119
 30
0.0
 40
20.77763607929859
 41
0.0
 46
0.0
 71
     7
 72
     1
  1
\fMyriad Pro|b0|i0|c0|p34;\W1;150
 11
-1.836970198721030E-16
 21
-1.0
 31
0.0
 73
     1
 44
1.0
  0
MTEXT
  5
22F
330
1F
100
AcDbEntity
  8
Layer 1
 62
     7
420
 16777215
100
AcDbMText
 10
-937.2224654503732
 20
-4.248448688716534
 30
0.0
 40
20.77763607929859
 41
0.0
 46
0.0
 71
     7
 72
     1
  1
\fMyriad Pro|b0|i0|c0|p34;\W1;465
 11
6.123233995736766E-17
 21
1.0
 31
0.0
 73
     1
 44
1.0
  0
POLYLINE
  5
230
330
1F
100
AcDbEntity
  8
Layer 1
 62
     7
420
 16777215
370
    20
100
AcDb2dPolyline
 66
     1
 10
0.0
 20
0.0
 30
0.0
  0
VERTEX
  5
231
330
230
100
AcDbEntity
  8
Layer 1
 62
     7
420
 16777215
370
    20
100
AcDbVertex
100
AcDb2dVertex
 10
-789.2250777296974
 20
253.2962146433411
 30
0.0
  0
VERTEX
  5
232
330
230
100
AcDbEntity
  8
Layer 1
 62
     7
420
 16777215
370
    20
100
AcDbVertex
100
AcDb2dVertex
 10
-956.2196210335063
 20
253.2962146519309
 30
0.0
  0
SEQEND
  5
233
330
230
100
AcDbEntity
  8
Layer 1
 62
     7
420
 16777215
370
    20
  0
POLYLINE
  5
234
330
1F
100
AcDbEntity
  8
Layer 1
 62
     7
420
 16777215
370
    20
100
AcDb2dPolyline
 66
     1
 10
0.0
 20
0.0
 30
0.0
  0
VERTEX
  5
235
330
234
100
AcDbEntity
  8
Layer 1
 62
     7
420
 16777215
370
    20
100
AcDbVertex
100
AcDb2dVertex
 10
-789.2250777296974
 20
-211.9474767754326
 30
0.0
  0
VERTEX
  5
236
330
234
100
AcDbEntity
  8
Layer 1
 62
     7
420
 16777215
370
    20
100
AcDbVertex
100
AcDb2dVertex
 10
-956.2196210583279
 20
-211.9474767683463
 30
0.0
  0
SEQEND
  5
237
330
234
100
AcDbEntity
  8
Layer 1
 62
     7
420
 16777215
370
    20
  0
INSERT
  5
239
330
1F
100
AcDbEntity
  8
Layer 1
100
AcDbBlockReference
  2
block 2
 10
0.0
 20
0.0
 30
0.0
  0
INSERT
  5
24C
330
1F
100
AcDbEntity
  8
Layer 1
100
AcDbBlockReference
  2
block 4
 10
0.0
 20
0.0
 30
0.0
  0
INSERT
  5
25F
330
1F
100
AcDbEntity
  8
Layer 1
100
AcDbBlockReference
  2
block 6
 10
0.0
 20
0.0
 30
0.0
  0
INSERT
  5
272
330
1F
100
AcDbEntity
  8
Layer 1
100
AcDbBlockReference
  2
block 8
 10
0.0
 20
0.0
 30
0.0
  0
INSERT
  5
285
330
1F
100
AcDbEntity
  8
Layer 1
100
AcDbBlockReference
  2
block 10
 10
0.0
 20
0.0
 30
0.0
  0
INSERT
  5
298
330
1F
100
AcDbEntity
  8
Layer 1
100
AcDbBlockReference
  2
block 12
 10
0.0
 20
0.0
 30
0.0
  0
POLYLINE
  5
2AA
330
1F
100
AcDbEntity
  8
Layer 1
 62
     7
420
 16777215
370
    20
100
AcDb2dPolyline
 66
     1
 10
0.0
 20
0.0
 30
0.0
  0
VERTEX
  5
2AB
330
2AA
100
AcDbEntity
  8
Layer 1
 62
     7
420
 16777215
370
    20
100
AcDbVertex
100
AcDb2dVertex
 10
12.43303750495808
 20
255.2365273144754
 30
0.0
  0
VERTEX
  5
2AC
330
2AA
100
AcDbEntity
  8
Layer 1
 62
     7
420
 16777215
370
    20
100
AcDbVertex
100
AcDb2dVertex
 10
68.1091510299007
 20
255.2365272985388
 30
0.0
  0
SEQEND
  5
2AD
330
2AA
100
AcDbEntity
  8
Layer 1
 62
     7
420
 16777215
370
    20
  0
POLYLINE
  5
2AE
330
1F
100
AcDbEntity
  8
Layer 1
 62
     7
420
 16777215
370
    20
100
AcDb2dPolyline
 66
     1
 10
0.0
 20
0.0
 30
0.0
  0
VERTEX
  5
2AF
330
2AE
100
AcDbEntity
  8
Layer 1
 62
     7
420
 16777215
370
    20
100
AcDbVertex
100
AcDb2dVertex
 10
12.43303749093054
 20
99.0130634897346
 30
0.0
  0
VERTEX
  5
2B0
330
2AE
100
AcDbEntity
  8
Layer 1
 62
     7
420
 16777215
370
    20
100
AcDbVertex
100
AcDb2dVertex
 10
68.10915101587317
 20
99.01306347379801
 30
0.0
  0
SEQEND
  5
2B1
330
2AE
100
AcDbEntity
  8
Layer 1
 62
     7
420
 16777215
370
    20
  0
POLYLINE
  5
2B2
330
1F
100
AcDbEntity
  8
Layer 1
 62
     7
420
 16777215
370
    20
100
AcDb2dPolyline
 66
     1
 10
0.0
 20
0.0
 30
0.0
  0
VERTEX
  5
2B3
330
2B2
100
AcDbEntity
  8
Layer 1
 62
     7
420
 16777215
370
    20
100
AcDbVertex
100
AcDb2dVertex
 10
-789.2250777296974
 20
163.7509441197525
 30
0.0
  0
VERTEX
  5
2B4
330
2B2
100
AcDbEntity
  8
Layer 1
 62
     7
420
 16777215
370
    20
100
AcDbVertex
100
AcDb2dVertex
 10
-919.2424834216862
 20
163.7509441271853
 30
0.0
  0
SEQEND
  5
2B5
330
2B2
100
AcDbEntity
  8
Layer 1
 62
     7
420
 16777215
370
    20
  0
POLYLINE
  5
2B6
330
1F
100
AcDbEntity
  8
Layer 1
 62
     7
420
 16777215
370
    20
100
AcDb2dPolyline
 66
     1
 10
0.0
 20
0.0
 30
0.0
  0
VERTEX
  5
2B7
330
2B6
100
AcDbEntity
  8
Layer 1
 62
     7
420
 16777215
370
    20
100
AcDbVertex
100
AcDb2dVertex
 10
-789.2250777296974
 20
-182.663980663571
 30
0.0
  0
VERTEX
  5
2B8
330
2B6
100
AcDbEntity
  8
Layer 1
 62
     7
420
 16777215
370
    20
100
AcDbVertex
100
AcDb2dVertex
 10
-919.2424834414278
 20
-182.6639806552456
 30
0.0
  0
SEQEND
  5
2B9
330
2B6
100
AcDbEntity
  8
Layer 1
 62
     7
420
 16777215
370
    20
  0
MTEXT
  5
2BA
330
1F
100
AcDbEntity
  8
Layer 1
 62
     7
420
 16777215
100
AcDbMText
 10
-668.1510771034701
 20
-112.9875908463191
 30
0.0
 40
20.77763607929859
 41
0.0
 46
0.0
 71
     7
 72
     1
  1
\fMyriad Pro|b0|i0|c0|p34;\W1;R18
 73
     1
 44
1.0
  0
INSERT
  5
2BC
330
1F
100
AcDbEntity
  8
Layer 1
100
AcDbBlockReference
  2
block 14
 10
0.0
 20
0.0
 30
0.0
  0
MTEXT
  5
2CF
330
1F
100
AcDbEntity
  8
Layer 1
 62
     7
420
 16777215
100
AcDbMText
 10
64.77158472773071
 20
20.78167724089833
 30
0.0
 40
20.77763607929859
 41
0.0
 46
0.0
 71
     7
 72
     1
  1
\fMyriad Pro|b0|i0|c0|p34;\W1;405
 11
-1.836970198721030E-16
 21
-1.0
 31
0.0
 73
     1
 44
1.0
  0
INSERT
  5
2D1
330
1F
100
AcDbEntity
  8
Layer 1
100
AcDbBlockReference
  2
block 16
 10
0.0
 20
0.0
 30
0.0
  0
INSERT
  5
2E4
330
1F
100
AcDbEntity
  8
Layer 1
100
AcDbBlockReference
  2
block 18
 10
0.0
 20
0.0
 30
0.0
  0
POLYLINE
  5
2F6
330
1F
100
AcDbEntity
  8
Layer 1
 62
     7
420
 16777215
370
    20
100
AcDb2dPolyline
 66
     1
 10
0.0
 20
0.0
 30
0.0
  0
VERTEX
  5
2F7
330
2F6
100
AcDbEntity
  8
Layer 1
 62
     7
420
 16777215
370
    20
100
AcDbVertex
100
AcDb2dVertex
 10
12.43303749785255
 20
-182.0671746331063
 30
0.0
  0
VERTEX
  5
2F8
330
2F6
100
AcDbEntity
  8
Layer 1
 62
     7
420
 16777215
370
    20
100
AcDbVertex
100
AcDb2dVertex
 10
93.25815502155012
 20
-182.0671746205367
 30
0.0
  0
SEQEND
  5
2F9
330
2F6
100
AcDbEntity
  8
Layer 1
 62
     7
420
 16777215
370
    20
  0
POLYLINE
  5
2FA
330
1F
100
AcDbEntity
  8
Layer 1
 62
     7
420
 16777215
370
    20
100
AcDb2dPolyline
 66
     1
 10
0.0
 20
0.0
 30
0.0
  0
VERTEX
  5
2FB
330
2FA
100
AcDbEntity
  8
Layer 1
 62
     7
420
 16777215
370
    20
100
AcDbVertex
100
AcDb2dVertex
 10
12.43303749794432
 20
223.6124049183412
 30
0.0
  0
VERTEX
  5
2FC
330
2FA
100
AcDbEntity
  8
Layer 1
 62
     7
420
 16777215
370
    20
100
AcDbVertex
100
AcDb2dVertex
 10
93.25815500492692
 20
223.6124049318104
 30
0.0
  0
SEQEND
  5
2FD
330
2FA
100
AcDbEntity
  8
Layer 1
 62
     7
420
 16777215
370
    20
  0
MTEXT
  5
2FE
330
1F
100
AcDbEntity
  8
Layer 1
 62
     7
420
 16777215
100
AcDbMText
 10
-403.043055793879
 20
-318.1166289487912
 30
0.0
 40
20.77763607929859
 41
0.0
 46
0.0
 71
     7
 72
     1
  1
\fMyriad Pro|b0|i0|c0|p34;\W1;750
 73
     1
 44
1.0
  0
MTEXT
  5
2FF
330
1F
100
AcDbEntity
  8
Layer 1
 62
     7
420
 16777215
100
AcDbMText
 10
-236.5177767692126
 20
-272.9597814937175
 30
0.0
 40
20.77763607929859
 41
0.0
 46
0.0
 71
     7
 72
     1
  1
\fMyriad Pro|b0|i0|c0|p34;\W1;355
 73
     1
 44
1.0
  0
MTEXT
  5
300
330
1F
100
AcDbEntity
  8
Layer 1
 62
     7
420
 16777215
100
AcDbMText
 10
-424.5787783091114
 20
-272.9597814937175
 30
0.0
 40
20.77763607929859
 41
0.0
 46
0.0
 71
     7
 72
     1
  1
\fMyriad Pro|b0|i0|c0|p34;\W1;35
 73
     1
 44
1.0
  0
MTEXT
  5
301
330
1F
100
AcDbEntity
  8
Layer 1
 62
     7
420
 16777215
100
AcDbMText
 10
-598.4282442080319
 20
-272.8538448075461
 30
0.0
 40
20.77763607929859
 41
0.0
 46
0.0
 71
     7
 72
     1
  1
\fMyriad Pro|b0|i0|c0|p34;\W1;300
 73
     1
 44
1.0
  0
POLYLINE
  5
302
330
1F
100
AcDbEntity
  8
Layer 1
 62
     7
420
 16777215
370
    20
100
AcDb2dPolyline
 66
     1
 10
0.0
 20
0.0
 30
0.0
  0
VERTEX
  5
303
330
302
100
AcDbEntity
  8
Layer 1
 62
     7
420
 16777215
370
    20
100
AcDbVertex
100
AcDb2dVertex
 10
-10.77052355563898
 20
-230.7076957916557
 30
0.0
  0
VERTEX
  5
304
330
302
100
AcDbEntity
  8
Layer 1
 62
     7
420
 16777215
370
    20
100
AcDbVertex
100
AcDb2dVertex
 10
-10.77052356080337
 20
-323.9109641262406
 30
0.0
  0
SEQEND
  5
305
330
302
100
AcDbEntity
  8
Layer 1
 62
     7
420
 16777215
370
    20
  0
POLYLINE
  5
306
330
1F
100
AcDbEntity
  8
Layer 1
 62
     7
420
 16777215
370
    20
100
AcDb2dPolyline
 66
     1
 10
0.0
 20
0.0
 30
0.0
  0
VERTEX
  5
307
330
306
100
AcDbEntity
  8
Layer 1
 62
     7
420
 16777215
370
    20
100
AcDbVertex
100
AcDb2dVertex
 10
-759.0552636243843
 20
-228.8409344397501
 30
0.0
  0
VERTEX
  5
308
330
306
100
AcDbEntity
  8
Layer 1
 62
     7
420
 16777215
370
    20
100
AcDbVertex
100
AcDb2dVertex
 10
-759.0552636296585
 20
-323.7325722286005
 30
0.0
  0
SEQEND
  5
309
330
306
100
AcDbEntity
  8
Layer 1
 62
     7
420
 16777215
370
    20
  0
POLYLINE
  5
30A
330
1F
100
AcDbEntity
  8
Layer 1
 62
     7
420
 16777215
370
    20
100
AcDb2dPolyline
 66
     1
 10
0.0
 20
0.0
 30
0.0
  0
VERTEX
  5
30B
330
30A
100
AcDbEntity
  8
Layer 1
 62
     7
420
 16777215
370
    20
100
AcDbVertex
100
AcDb2dVertex
 10
-38.59974836023851
 20
-230.7077053740082
 30
0.0
  0
VERTEX
  5
30C
330
30A
100
AcDbEntity
  8
Layer 1
 62
     7
420
 16777215
370
    20
100
AcDbVertex
100
AcDb2dVertex
 10
-38.59974836566408
 20
-281.6908789487173
 30
0.0
  0
SEQEND
  5
30D
330
30A
100
AcDbEntity
  8
Layer 1
 62
     7
420
 16777215
370
    20
  0
POLYLINE
  5
30E
330
1F
100
AcDbEntity
  8
Layer 1
 62
     7
420
 16777215
370
    20
100
AcDb2dPolyline
 66
     1
 10
0.0
 20
0.0
 30
0.0
  0
VERTEX
  5
30F
330
30E
100
AcDbEntity
  8
Layer 1
 62
     7
420
 16777215
370
    20
100
AcDbVertex
100
AcDb2dVertex
 10
-394.2710728633785
 20
-230.7076960275789
 30
0.0
  0
VERTEX
  5
310
330
30E
100
AcDbEntity
  8
Layer 1
 62
     7
420
 16777215
370
    20
100
AcDbVertex
100
AcDb2dVertex
 10
-394.2710728688077
 20
-281.6908696022887
 30
0.0
  0
SEQEND
  5
311
330
30E
100
AcDbEntity
  8
Layer 1
 62
     7
420
 16777215
370
    20
  0
POLYLINE
  5
312
330
1F
100
AcDbEntity
  8
Layer 1
 62
     7
420
 16777215
370
    20
100
AcDb2dPolyline
 66
     1
 10
0.0
 20
0.0
 30
0.0
  0
VERTEX
  5
313
330
312
100
AcDbEntity
  8
Layer 1
 62
     7
420
 16777215
370
    20
100
AcDbVertex
100
AcDb2dVertex
 10
-426.1855528606862
 20
-228.8409344397501
 30
0.0
  0
VERTEX
  5
314
330
312
100
AcDbEntity
  8
Layer 1
 62
     7
420
 16777215
370
    20
100
AcDbVertex
100
AcDb2dVertex
 10
-426.185552865692
 20
-277.8100623947926
 30
0.0
  0
SEQEND
  5
315
330
312
100
AcDbEntity
  8
Layer 1
 62
     7
420
 16777215
370
    20
  0
POLYLINE
  5
316
330
1F
100
AcDbEntity
  8
Layer 1
 62
     7
420
 16777215
370
    20
100
AcDb2dPolyline
 66
     1
 10
0.0
 20
0.0
 30
0.0
  0
VERTEX
  5
317
330
316
100
AcDbEntity
  8
Layer 1
 62
     7
420
 16777215
370
    20
100
AcDbVertex
100
AcDb2dVertex
 10
-726.0466643683512
 20
-228.8409346756733
 30
0.0
  0
VERTEX
  5
318
330
316
100
AcDbEntity
  8
Layer 1
 62
     7
420
 16777215
370
    20
100
AcDbVertex
100
AcDb2dVertex
 10
-726.0466643736955
 20
-278.0632886194998
 30
0.0
  0
SEQEND
  5
319
330
316
100
AcDbEntity
  8
Layer 1
 62
     7
420
 16777215
370
    20
  0
INSERT
  5
31B
330
1F
100
AcDbEntity
  8
Layer 1
100
AcDbBlockReference
  2
block 20
 10
0.0
 20
0.0
 30
0.0
  0
INSERT
  5
32E
330
1F
100
AcDbEntity
  8
Layer 1
100
AcDbBlockReference
  2
block 22
 10
0.0
 20
0.0
 30
0.0
  0
INSERT
  5
341
330
1F
100
AcDbEntity
  8
Layer 1
100
AcDbBlockReference
  2
block 24
 10
0.0
 20
0.0
 30
0.0
  0
INSERT
  5
354
330
1F
100
AcDbEntity
  8
Layer 1
100
AcDbBlockReference
  2
block 26
 10
0.0
 20
0.0
 30
0.0
  0
INSERT
  5
367
330
1F
100
AcDbEntity
  8
Layer 1
100
AcDbBlockReference
  2
block 28
 10
0.0
 20
0.0
 30
0.0
  0
INSERT
  5
37A
330
1F
100
AcDbEntity
  8
Layer 1
100
AcDbBlockReference
  2
block 30
 10
0.0
 20
0.0
 30
0.0
  0
MTEXT
  5
38C
330
1F
100
AcDbEntity
  8
Layer 1
 62
     7
420
 16777215
100
AcDbMText
 10
-856.3525524117799
 20
-624.744467345984
 30
0.0
 40
20.77763607929859
 41
0.0
 46
0.0
 71
     7
 72
     1
  1
\fMyriad Pro|b0|i0|c0|p34;\W1;200
 11
6.123233995736766E-17
 21
1.0
 31
0.0
 73
     1
 44
1.0
  0
POLYLINE
  5
38D
330
1F
100
AcDbEntity
  8
Layer 1
 62
     7
420
 16777215
370
    20
100
AcDb2dPolyline
 66
     1
 10
0.0
 20
0.0
 30
0.0
  0
VERTEX
  5
38E
330
38D
100
AcDbEntity
  8
Layer 1
 62
     7
420
 16777215
370
    20
100
AcDbVertex
100
AcDb2dVertex
 10
-788.7086574059817
 20
-494.3058418396255
 30
0.0
  0
VERTEX
  5
38F
330
38D
100
AcDbEntity
  8
Layer 1
 62
     7
420
 16777215
370
    20
100
AcDbVertex
100
AcDb2dVertex
 10
-872.7223470531362
 20
-494.3058418590742
 30
0.0
  0
SEQEND
  5
390
330
38D
100
AcDbEntity
  8
Layer 1
 62
     7
420
 16777215
370
    20
  0
POLYLINE
  5
391
330
1F
100
AcDbEntity
  8
Layer 1
 62
     7
420
 16777215
370
    20
100
AcDb2dPolyline
 66
     1
 10
0.0
 20
0.0
 30
0.0
  0
VERTEX
  5
392
330
391
100
AcDbEntity
  8
Layer 1
 62
     7
420
 16777215
370
    20
100
AcDbVertex
100
AcDb2dVertex
 10
-788.7086574059817
 20
-693.0081325362655
 30
0.0
  0
VERTEX
  5
393
330
391
100
AcDbEntity
  8
Layer 1
 62
     7
420
 16777215
370
    20
100
AcDbVertex
100
AcDb2dVertex
 10
-872.7223470238838
 20
-693.008132553343
 30
0.0
  0
SEQEND
  5
394
330
391
100
AcDbEntity
  8
Layer 1
 62
     7
420
 16777215
370
    20
  0
INSERT
  5
396
330
1F
100
AcDbEntity
  8
Layer 1
100
AcDbBlockReference
  2
block 32
 10
0.0
 20
0.0
 30
0.0
  0
INSERT
  5
3A9
330
1F
100
AcDbEntity
  8
Layer 1
100
AcDbBlockReference
  2
block 34
 10
0.0
 20
0.0
 30
0.0
  0
INSERT
  5
3BC
330
1F
100
AcDbEntity
  8
Layer 1
100
AcDbBlockReference
  2
block 36
 10
0.0
 20
0.0
 30
0.0
  0
INSERT
  5
3C1
330
1F
100
AcDbEntity
  8
Layer 1
100
AcDbBlockReference
  2
block 37
 10
0.0
 20
0.0
 30
0.0
  0
INSERT
  5
3C6
330
1F
100
AcDbEntity
  8
Layer 1
100
AcDbBlockReference
  2
block 38
 10
0.0
 20
0.0
 30
0.0
  0
INSERT
  5
3CC
330
1F
100
AcDbEntity
  8
Layer 1
100
AcDbBlockReference
  2
block 39
 10
0.0
 20
0.0
 30
0.0
  0
INSERT
  5
3D1
330
1F
100
AcDbEntity
  8
Layer 1
100
AcDbBlockReference
  2
block 40
 10
0.0
 20
0.0
 30
0.0
  0
INSERT
  5
3D6
330
1F
100
AcDbEntity
  8
Layer 1
100
AcDbBlockReference
  2
block 41
 10
0.0
 20
0.0
 30
0.0
  0
INSERT
  5
3DB
330
1F
100
AcDbEntity
  8
Layer 1
100
AcDbBlockReference
  2
block 42
 10
0.0
 20
0.0
 30
0.0
  0
INSERT
  5
3E0
330
1F
100
AcDbEntity
  8
Layer 1
100
AcDbBlockReference
  2
block 43
 10
0.0
 20
0.0
 30
0.0
  0
INSERT
  5
3E5
330
1F
100
AcDbEntity
  8
Layer 1
100
AcDbBlockReference
  2
block 44
 10
0.0
 20
0.0
 30
0.0
  0
INSERT
  5
3EA
330
1F
100
AcDbEntity
  8
Layer 1
100
AcDbBlockReference
  2
block 45
 10
0.0
 20
0.0
 30
0.0
  0
INSERT
  5
3EF
330
1F
100
AcDbEntity
  8
Layer 1
100
AcDbBlockReference
  2
block 46
 10
0.0
 20
0.0
 30
0.0
  0
INSERT
  5
3FB
330
1F
100
AcDbEntity
  8
Layer 1
100
AcDbBlockReference
  2
block 47
 10
0.0
 20
0.0
 30
0.0
  0
INSERT
  5
400
330
1F
100
AcDbEntity
  8
Layer 1
100
AcDbBlockReference
  2
block 48
 10
0.0
 20
0.0
 30
0.0
  0
INSERT
  5
405
330
1F
100
AcDbEntity
  8
Layer 1
100
AcDbBlockReference
  2
block 49
 10
0.0
 20
0.0
 30
0.0
  0
INSERT
  5
40A
330
1F
100
AcDbEntity
  8
Layer 1
100
AcDbBlockReference
  2
block 50
 10
0.0
 20
0.0
 30
0.0
  0
INSERT
  5
40F
330
1F
100
AcDbEntity
  8
Layer 1
100
AcDbBlockReference
  2
block 51
 10
0.0
 20
0.0
 30
0.0
  0
ENDSEC
  0
SECTION
  2
OBJECTS
  0
DICTIONARY
  5
C
330
0
100
AcDbDictionary
281
     1
  3
ACAD_GROUP
350
D
  3
ACAD_LAYOUT
350
1A
  3
ACAD_MATERIAL
350
3B
  3
ACAD_MLEADERSTYLE
350
418
  3
ACAD_MLINESTYLE
350
17
  3
ACAD_PLOTSETTINGS
350
19
  3
ACAD_PLOTSTYLENAME
350
E
  3
ACAD_TABLESTYLE
350
417
  3
ACAD_VISUALSTYLE
350
2A
  0
SUN
  5
3F
330
29
100
AcDbSun
 90
        1
290
     0
 63
     7
421
 16777215
 40
1.0
291
     1
 91
  2455826
 92
 54000000
292
     0
 70
     2
 71
   256
280
     1
  0
DICTIONARY
  5
D
102
{ACAD_REACTORS
330
C
102
}
330
C
100
AcDbDictionary
281
     1
  0
DICTIONARY
  5
1A
102
{ACAD_REACTORS
330
C
102
}
330
C
100
AcDbDictionary
281
     1
  3
Layout1
350
1E
  3
Layout2
350
26
  3
Model
350
22
  0
DICTIONARY
  5
3B
102
{ACAD_REACTORS
330
C
102
}
330
C
100
AcDbDictionary
281
     1
  3
ByBlock
350
3D
  3
ByLayer
350
3C
  3
Global
350
3E
  0
DICTIONARY
  5
418
102
{ACAD_REACTORS
330
C
102
}
330
C
100
AcDbDictionary
281
     1
  0
DICTIONARY
  5
17
102
{ACAD_REACTORS
330
C
102
}
330
C
100
AcDbDictionary
281
     1
  3
Standard
350
18
  0
DICTIONARY
  5
19
102
{ACAD_REACTORS
330
C
102
}
330
C
100
AcDbDictionary
281
     1
  0
ACDBDICTIONARYWDFLT
  5
E
102
{ACAD_REACTORS
330
C
102
}
330
C
100
AcDbDictionary
281
     1
  3
Normal
350
F
100
AcDbDictionaryWithDefault
340
F
  0
DICTIONARY
  5
417
102
{ACAD_REACTORS
330
C
102
}
330
C
100
AcDbDictionary
281
     1
  0
DICTIONARY
  5
2A
102
{ACAD_REACTORS
330
C
102
}
330
C
100
AcDbDictionary
281
     1
  3
2dWireframe
350
2F
  3
3D Hidden
350
31
  3
3dWireframe
350
30
  3
Basic
350
32
  3
Brighten
350
36
  3
ColorChange
350
3A
  3
Conceptual
350
34
  3
Dim
350
35
  3
Facepattern
350
39
  3
Flat
350
2B
  3
FlatWithEdges
350
2C
  3
Gouraud
350
2D
  3
GouraudWithEdges
350
2E
  3
Linepattern
350
38
  3
Realistic
350
33
  3
Thicken
350
37
  0
LAYOUT
  5
1E
102
{ACAD_REACTORS
330
1A
102
}
330
1A
100
AcDbPlotSettings
  1

  2
none_device
  4

  6

 40
0.0
 41
0.0
 42
0.0
 43
0.0
 44
0.0
 45
0.0
 46
0.0
 47
0.0
 48
0.0
 49
0.0
140
0.0
141
0.0
142
1.0
143
1.0
 70
   688
 72
     0
 73
     0
 74
     5
  7

 75
    16
 76
     0
 77
     2
 78
   300
147
1.0
148
0.0
149
0.0
100
AcDbLayout
  1
Layout1
 70
     1
 71
     1
 10
0.0
 20
0.0
 11
12.0
 21
9.0
 12
0.0
 22
0.0
 32
0.0
 14
1.000000000000000E+20
 24
1.000000000000000E+20
 34
1.000000000000000E+20
 15
-1.000000000000000E+20
 25
-1.000000000000000E+20
 35
-1.000000000000000E+20
146
0.0
 13
0.0
 23
0.0
 33
0.0
 16
1.0
 26
0.0
 36
0.0
 17
0.0
 27
1.0
 37
0.0
 76
     0
330
1B
  0
LAYOUT
  5
26
102
{ACAD_REACTORS
330
1A
102
}
330
1A
100
AcDbPlotSettings
  1

  2
none_device
  4

  6

 40
0.0
 41
0.0
 42
0.0
 43
0.0
 44
0.0
 45
0.0
 46
0.0
 47
0.0
 48
0.0
 49
0.0
140
0.0
141
0.0
142
1.0
143
1.0
 70
   688
 72
     0
 73
     0
 74
     5
  7

 75
    16
 76
     0
 77
     2
 78
   300
147
1.0
148
0.0
149
0.0
100
AcDbLayout
  1
Layout2
 70
     1
 71
     2
 10
0.0
 20
0.0
 11
0.0
 21
0.0
 12
0.0
 22
0.0
 32
0.0
 14
0.0
 24
0.0
 34
0.0
 15
0.0
 25
0.0
 35
0.0
146
0.0
 13
0.0
 23
0.0
 33
0.0
 16
1.0
 26
0.0
 36
0.0
 17
0.0
 27
1.0
 37
0.0
 76
     0
330
23
  0
LAYOUT
  5
22
102
{ACAD_REACTORS
330
1A
102
}
330
1A
100
AcDbPlotSettings
  1

  2
none_device
  4

  6

 40
0.0
 41
0.0
 42
0.0
 43
0.0
 44
0.0
 45
0.0
 46
0.0
 47
0.0
 48
0.0
 49
0.0
140
0.0
141
0.0
142
1.0
143
1.0
 70
  1712
 72
     0
 73
     0
 74
     0
  7

 75
     0
 76
     0
 77
     2
 78
   300
147
1.0
148
0.0
149
0.0
100
AcDbLayout
  1
Model
 70
     1
 71
     0
 10
0.0
 20
0.0
 11
12.0
 21
9.0
 12
0.0
 22
0.0
 32
0.0
 14
1.000000000000000E+20
 24
1.000000000000000E+20
 34
1.000000000000000E+20
 15
-1.000000000000000E+20
 25
-1.000000000000000E+20
 35
-1.000000000000000E+20
146
0.0
 13
0.0
 23
0.0
 33
0.0
 16
1.0
 26
0.0
 36
0.0
 17
0.0
 27
1.0
 37
0.0
 76
     0
330
1F
331
29
  0
MATERIAL
  5
3D
102
{ACAD_REACTORS
330
3B
102
}
330
3B
100
AcDbMaterial
  1
ByBlock
 72
     1
 94
      127
  0
MATERIAL
  5
3C
102
{ACAD_REACTORS
330
3B
102
}
330
3B
100
AcDbMaterial
  1
ByLayer
 72
     1
 94
      127
  0
MATERIAL
  5
3E
102
{ACAD_REACTORS
330
3B
102
}
330
3B
100
AcDbMaterial
  1
Global
 72
     1
 94
      127
  0
MLINESTYLE
  5
18
102
{ACAD_REACTORS
330
17
102
}
330
17
100
AcDbMlineStyle
  2
Standard
 70
     0
  3

 62
   256
 51
90.0
 52
90.0
 71
     2
 49
0.5
 62
   256
  6
BYLAYER
 49
-0.5
 62
   256
  6
BYLAYER
  0
ACDBPLACEHOLDER
  5
F
102
{ACAD_REACTORS
330
E
102
}
330
E
  0
VISUALSTYLE
  5
2F
102
{ACAD_REACTORS
330
2A
102
}
330
2A
100
AcDbVisualStyle
  2
2dWireframe
 70
     4
177
     2
291
     0
 71
     0
176
     1
 72
     2
176
     1
 73
     0
176
     1
 90
        0
176
     1
 40
-0.6
176
     1
 41
-30.0
176
     1
 62
     5
 63
     7
421
 16777215
176
     1
 74
     1
176
     1
 91
        4
176
     1
 64
     7
176
     1
 65
   257
176
     1
 75
     1
176
     1
175
     1
176
     1
 42
1.0
176
     1
 92
        0
176
     1
 66
   257
176
     1
 43
1.0
176
     1
 76
     1
176
     1
 77
     6
176
     1
 78
     2
176
     1
 67
     7
176
     1
 79
     5
176
     1
170
     0
176
     1
171
     0
176
     1
290
     0
176
     1
 93
        1
176
     1
 44
0.0
176
     1
173
     0
176
     1
  0
VISUALSTYLE
  5
31
102
{ACAD_REACTORS
330
2A
102
}
330
2A
100
AcDbVisualStyle
  2
3D Hidden
 70
     6
177
     2
291
     0
 71
     1
176
     1
 72
     2
176
     1
 73
     2
176
     1
 90
        0
176
     1
 40
-0.6
176
     1
 41
-30.0
176
     1
 62
     5
 63
     7
421
 16777215
176
     1
 74
     2
176
     1
 91
        2
176
     1
 64
     7
176
     1
 65
   257
176
     1
 75
     2
176
     1
175
     1
176
     1
 42
40.0
176
     1
 92
        0
176
     1
 66
   257
176
     1
 43
1.0
176
     1
 76
     1
176
     1
 77
     6
176
     1
 78
     2
176
     1
 67
     7
176
     1
 79
     3
176
     1
170
     0
176
     1
171
     0
176
     1
290
     0
176
     1
 93
        1
176
     1
 44
0.0
176
     1
173
     0
176
     1
  0
VISUALSTYLE
  5
30
102
{ACAD_REACTORS
330
2A
102
}
330
2A
100
AcDbVisualStyle
  2
3dWireframe
 70
     5
177
     2
291
     0
 71
     0
176
     1
 72
     2
176
     1
 73
     0
176
     1
 90
        0
176
     1
 40
-0.6
176
     1
 41
-30.0
176
     1
 62
     5
 63
     7
421
 16777215
176
     1
 74
     1
176
     1
 91
        4
176
     1
 64
     7
176
     1
 65
   257
176
     1
 75
     1
176
     1
175
     1
176
     1
 42
1.0
176
     1
 92
        0
176
     1
 66
   257
176
     1
 43
1.0
176
     1
 76
     1
176
     1
 77
     6
176
     1
 78
     2
176
     1
 67
     7
176
     1
 79
     5
176
     1
170
     0
176
     1
171
     0
176
     1
290
     0
176
     1
 93
        1
176
     1
 44
0.0
176
     1
173
     0
176
     1
  0
VISUALSTYLE
  5
32
102
{ACAD_REACTORS
330
2A
102
}
330
2A
100
AcDbVisualStyle
  2
Basic
 70
     7
177
     2
291
     1
 71
     1
176
     1
 72
     0
176
     1
 73
     1
176
     1
 90
        0
176
     1
 40
-0.6
176
     1
 41
-30.0
176
     1
 62
     5
 63
     7
421
 16777215
176
     1
 74
     0
176
     1
 91
        4
176
     1
 64
     7
176
     1
 65
   257
176
     1
 75
     1
176
     1
175
     1
176
     1
 42
1.0
176
     1
 92
        8
176
     1
 66
     7
176
     1
 43
1.0
176
     1
 76
     1
176
     1
 77
     6
176
     1
 78
     2
176
     1
 67
     7
176
     1
 79
     5
176
     1
170
     0
176
     1
171
     0
176
     1
290
     0
176
     1
 93
        1
176
     1
 44
0.0
176
     1
173
     0
176
     1
  0
VISUALSTYLE
  5
36
102
{ACAD_REACTORS
330
2A
102
}
330
2A
100
AcDbVisualStyle
  2
Brighten
 70
    12
177
     2
291
     1
 71
     2
176
     1
 72
     2
176
     1
 73
     0
176
     1
 90
        0
176
     1
 40
-0.6
176
     1
 41
-30.0
176
     1
 62
     5
 63
     7
421
 16777215
176
     1
 74
     1
176
     1
 91
        4
176
     1
 64
     7
176
     1
 65
   257
176
     1
 75
     1
176
     1
175
     1
176
     1
 42
1.0
176
     1
 92
        8
176
     1
 66
     7
176
     1
 43
1.0
176
     1
 76
     1
176
     1
 77
     6
176
     1
 78
     2
176
     1
 67
     7
176
     1
 79
     5
176
     1
170
     0
176
     1
171
     0
176
     1
290
     0
176
     1
 93
        1
176
     1
 44
50.0
176
     1
173
     0
176
     1
  0
VISUALSTYLE
  5
3A
102
{ACAD_REACTORS
330
2A
102
}
330
2A
100
AcDbVisualStyle
  2
ColorChange
 70
    16
177
     2
291
     1
 71
     2
176
     1
 72
     2
176
     1
 73
     3
176
     1
 90
        0
176
     1
 40
-0.6
176
     1
 41
-30.0
176
     1
 62
     5
 63
     8
421
  8421504
176
     1
 74
     1
176
     1
 91
        4
176
     1
 64
     7
176
     1
 65
   257
176
     1
 75
     1
176
     1
175
     1
176
     1
 42
1.0
176
     1
 92
        8
176
     1
 66
     8
424
  8421504
176
     1
 43
1.0
176
     1
 76
     1
176
     1
 77
     6
176
     1
 78
     2
176
     1
 67
     7
176
     1
 79
     5
176
     1
170
     0
176
     1
171
     0
176
     1
290
     0
176
     1
 93
        1
176
     1
 44
0.0
176
     1
173
     0
176
     1
  0
VISUALSTYLE
  5
34
102
{ACAD_REACTORS
330
2A
102
}
330
2A
100
AcDbVisualStyle
  2
Conceptual
 70
     9
177
     2
291
     0
 71
     3
176
     1
 72
     2
176
     1
 73
     0
176
     1
 90
        0
176
     1
 40
-0.6
176
     1
 41
-30.0
176
     1
 62
     5
 63
     7
421
 16777215
176
     1
 74
     2
176
     1
 91
        2
176
     1
 64
     7
176
     1
 65
   257
176
     1
 75
     1
176
     1
175
     1
176
     1
 42
40.0
176
     1
 92
        8
176
     1
 66
     7
176
     1
 43
1.0
176
     1
 76
     1
176
     1
 77
     6
176
     1
 78
     2
176
     1
 67
     7
176
     1
 79
     3
176
     1
170
     0
176
     1
171
     0
176
     1
290
     0
176
     1
 93
        1
176
     1
 44
0.0
176
     1
173
     0
176
     1
  0
VISUALSTYLE
  5
35
102
{ACAD_REACTORS
330
2A
102
}
330
2A
100
AcDbVisualStyle
  2
Dim
 70
    11
177
     2
291
     1
 71
     2
176
     1
 72
     2
176
     1
 73
     0
176
     1
 90
        0
176
     1
 40
-0.6
176
     1
 41
-30.0
176
     1
 62
     5
 63
     7
421
 16777215
176
     1
 74
     1
176
     1
 91
        4
176
     1
 64
     7
176
     1
 65
   257
176
     1
 75
     1
176
     1
175
     1
176
     1
 42
1.0
176
     1
 92
        8
176
     1
 66
     7
176
     1
 43
1.0
176
     1
 76
     1
176
     1
 77
     6
176
     1
 78
     2
176
     1
 67
     7
176
     1
 79
     5
176
     1
170
     0
176
     1
171
     0
176
     1
290
     0
176
     1
 93
        1
176
     1
 44
-50.0
176
     1
173
     0
176
     1
  0
VISUALSTYLE
  5
39
102
{ACAD_REACTORS
330
2A
102
}
330
2A
100
AcDbVisualStyle
  2
Facepattern
 70
    15
177
     2
291
     1
 71
     2
176
     1
 72
     2
176
     1
 73
     0
176
     1
 90
        0
176
     1
 40
-0.6
176
     1
 41
-30.0
176
     1
 62
     5
 63
     7
421
 16777215
176
     1
 74
     1
176
     1
 91
        4
176
     1
 64
     7
176
     1
 65
   257
176
     1
 75
     1
176
     1
175
     1
176
     1
 42
1.0
176
     1
 92
        8
176
     1
 66
     7
176
     1
 43
1.0
176
     1
 76
     1
176
     1
 77
     6
176
     1
 78
     2
176
     1
 67
     7
176
     1
 79
     5
176
     1
170
     0
176
     1
171
     0
176
     1
290
     0
176
     1
 93
        1
176
     1
 44
0.0
176
     1
173
     0
176
     1
  0
VISUALSTYLE
  5
2B
102
{ACAD_REACTORS
330
2A
102
}
330
2A
100
AcDbVisualStyle
  2
Flat
 70
     0
177
     2
291
     1
 71
     2
176
     1
 72
     1
176
     1
 73
     1
176
     1
 90
        2
176
     1
 40
-0.6
176
     1
 41
30.0
176
     1
 62
     5
 63
     7
421
 16777215
176
     1
 74
     0
176
     1
 91
        4
176
     1
 64
     7
176
     1
 65
   257
176
     1
 75
     1
176
     1
175
     1
176
     1
 42
1.0
176
     1
 92
        8
176
     1
 66
     7
176
     1
 43
1.0
176
     1
 76
     1
176
     1
 77
     6
176
     1
 78
     2
176
     1
 67
     7
176
     1
 79
     5
176
     1
170
     0
176
     1
171
     0
176
     1
290
     0
176
     1
 93
       13
176
     1
 44
0.0
176
     1
173
     0
176
     1
  0
VISUALSTYLE
  5
2C
102
{ACAD_REACTORS
330
2A
102
}
330
2A
100
AcDbVisualStyle
  2
FlatWithEdges
 70
     1
177
     2
291
     1
 71
     2
176
     1
 72
     1
176
     1
 73
     1
176
     1
 90
        2
176
     1
 40
-0.6
176
     1
 41
30.0
176
     1
 62
     5
 63
     7
421
 16777215
176
     1
 74
     1
176
     1
 91
        4
176
     1
 64
     7
176
     1
 65
   257
176
     1
 75
     1
176
     1
175
     1
176
     1
 42
1.0
176
     1
 92
        0
176
     1
 66
   257
176
     1
 43
1.0
176
     1
 76
     1
176
     1
 77
     6
176
     1
 78
     2
176
     1
 67
     7
176
     1
 79
     5
176
     1
170
     0
176
     1
171
     0
176
     1
290
     0
176
     1
 93
       13
176
     1
 44
0.0
176
     1
173
     0
176
     1
  0
VISUALSTYLE
  5
2D
102
{ACAD_REACTORS
330
2A
102
}
330
2A
100
AcDbVisualStyle
  2
Gouraud
 70
     2
177
     2
291
     1
 71
     2
176
     1
 72
     2
176
     1
 73
     1
176
     1
 90
        2
176
     1
 40
-0.6
176
     1
 41
30.0
176
     1
 62
     5
 63
     7
421
 16777215
176
     1
 74
     0
176
     1
 91
        4
176
     1
 64
     7
176
     1
 65
   257
176
     1
 75
     1
176
     1
175
     1
176
     1
 42
1.0
176
     1
 92
        0
176
     1
 66
     7
176
     1
 43
1.0
176
     1
 76
     1
176
     1
 77
     6
176
     1
 78
     2
176
     1
 67
     7
176
     1
 79
     5
176
     1
170
     0
176
     1
171
     0
176
     1
290
     0
176
     1
 93
       13
176
     1
 44
0.0
176
     1
173
     0
176
     1
  0
VISUALSTYLE
  5
2E
102
{ACAD_REACTORS
330
2A
102
}
330
2A
100
AcDbVisualStyle
  2
GouraudWithEdges
 70
     3
177
     2
291
     1
 71
     2
176
     1
 72
     2
176
     1
 73
     1
176
     1
 90
        2
176
     1
 40
-0.6
176
     1
 41
30.0
176
     1
 62
     5
 63
     7
421
 16777215
176
     1
 74
     1
176
     1
 91
        4
176
     1
 64
     7
176
     1
 65
   257
176
     1
 75
     1
176
     1
175
     1
176
     1
 42
1.0
176
     1
 92
        0
176
     1
 66
   257
176
     1
 43
1.0
176
     1
 76
     1
176
     1
 77
     6
176
     1
 78
     2
176
     1
 67
     7
176
     1
 79
     5
176
     1
170
     0
176
     1
171
     0
176
     1
290
     0
176
     1
 93
       13
176
     1
 44
0.0
176
     1
173
     0
176
     1
  0
VISUALSTYLE
  5
38
102
{ACAD_REACTORS
330
2A
102
}
330
2A
100
AcDbVisualStyle
  2
Linepattern
 70
    14
177
     2
291
     1
 71
     2
176
     1
 72
     2
176
     1
 73
     0
176
     1
 90
        0
176
     1
 40
-0.6
176
     1
 41
-30.0
176
     1
 62
     5
 63
     7
421
 16777215
176
     1
 74
     1
176
     1
 91
        4
176
     1
 64
     7
176
     1
 65
   257
176
     1
 75
     7
176
     1
175
     7
176
     1
 42
1.0
176
     1
 92
        8
176
     1
 66
     7
176
     1
 43
1.0
176
     1
 76
     1
176
     1
 77
     6
176
     1
 78
     2
176
     1
 67
     7
176
     1
 79
     5
176
     1
170
     0
176
     1
171
     0
176
     1
290
     0
176
     1
 93
        1
176
     1
 44
0.0
176
     1
173
     0
176
     1
  0
VISUALSTYLE
  5
33
102
{ACAD_REACTORS
330
2A
102
}
330
2A
100
AcDbVisualStyle
  2
Realistic
 70
     8
177
     2
291
     0
 71
     2
176
     1
 72
     2
176
     1
 73
     0
176
     1
 90
        0
176
     1
 40
-0.6
176
     1
 41
-30.0
176
     1
 62
     5
 63
     7
421
 16777215
176
     1
 74
     1
176
     1
 91
        0
176
     1
 64
     7
176
     1
 65
   257
176
     1
 75
     1
176
     1
175
     1
176
     1
 42
1.0
176
     1
 92
        8
176
     1
 66
     8
424
  7895160
176
     1
 43
1.0
176
     1
 76
     1
176
     1
 77
     6
176
     1
 78
     2
176
     1
 67
     7
176
     1
 79
     5
176
     1
170
     0
176
     1
171
     0
176
     1
290
     0
176
     1
 93
       13
176
     1
 44
0.0
176
     1
173
     0
176
     1
  0
VISUALSTYLE
  5
37
102
{ACAD_REACTORS
330
2A
102
}
330
2A
100
AcDbVisualStyle
  2
Thicken
 70
    13
177
     2
291
     1
 71
     2
176
     1
 72
     2
176
     1
 73
     0
176
     1
 90
        0
176
     1
 40
-0.6
176
     1
 41
-30.0
176
     1
 62
     5
 63
     7
421
 16777215
176
     1
 74
     1
176
     1
 91
        4
176
     1
 64
     7
176
     1
 65
   257
176
     1
 75
     1
176
     1
175
     1
176
     1
 42
1.0
176
     1
 92
       12
176
     1
 66
     7
176
     1
 43
1.0
176
     1
 76
     1
176
     1
 77
     6
176
     1
 78
     2
176
     1
 67
     7
176
     1
 79
     5
176
     1
170
     0
176
     1
171
     0
176
     1
290
     0
176
     1
 93
        1
176
     1
 44
0.0
176
     1
173
     0
176
     1
  0
ENDSEC
  0
EOF
